Song name
# A B C D E F G H I J K L M N O P Q R S T U V W X Y Z

Heart - Magic Man tab

 this is what I had on this song.
It's not the whole thing but maybe enough for ya I hope...

 Magic Man (by Ann and Nancy Wilson)


Guitar 3 (Rhythm)
     1  &  2 e  & 3  &  4 e  &  (same rhythm trhoughout)
E||----------------------------|----------------------------|
B||----------------------------|----------------------------|
G||--------x-x--x-------x-x--x-|--------x-x--x-------x-x--x-|
D||--5--5--x-x--x-5--5--x-x--x-|--5--5--x-x--x-5--5--x-x--x-|
A||--5--5--x-x--x-5--5--x-x--x-|--5--5--x-x--x-5--5--x-x--x-|
E||--3--3---------3--3---------|--3--3---------3--3---------|
 ||                                                   |
Guitar 1 5 and 6 (Lead)                               |
 ||                                                   |
E||----------------------|----------------------------|
B||--15b-------------15--|----18r---------18--15------|
G||----------------------|------------------------17--|
D||----------------------|----------------------------|
A||----------------------|----------------------------|
E||----------------------|----------------------------|


|----------------------------|----------------------------|
|----------------------------|----------------------------|
|--------x-x--x-------x-x--x-|--------x-x--x-------x-x--x-|
|--5--5--x-x--x-5--5--x-x--x-|--5--5--x-x--x-5--5--x-x--x-|
|--5--5--x-x--x-5--5--x-x--x-|--5--5--x-x--x-5--5--x-x--x-|
|--3--3---------3--3---------|--3--3---------3--3---------|
|                              |                        |
|------------------------------|------------------------|
|------------------------------|----15--18~-------------|
|--15~---14-15--17-------15-17b|------------------------|
|------------------------------|------------------------|
|------------------------------|------------------------|
|------------------------------|------------------------|


|----------------------------|-----------------------3--|------------------|
|----------------------------|-----------------------3--|------------------|
|--------x-x--x-------x-x--x-|--------x-x--x---------0--|------------------|
|--5--5--x-x--x-5--5--x-x--x-|--5--5--x-x--x-5--5----3--|------------------|
|--5--5--x-x--x-5--5--x-x--x-|--5--5--x-x--x-5--5----3--|------------------|
|--3--3---------3--3---------|--3--3---------3--3-------|------------------|

----------------------|----------------------------|-----------------------3--|
----------------------|----------------------------|-----------------------3--|
----------------------|--------x-x--x-------x-x--x-|--------x-x--x---------0--|
----3----3----3----3--|--5--5--x-x--x-5--5--x-x--x-|--5--5--x-x--x-5--5----3--|
----3----3----3----3--|--5--5--x-x--x-5--5--x-x--x-|--5--5--x-x--x-5--5----3--|
----1----1----1----1--|--3--3---------3--3---------|--3--3---------3--3-------|

------------------|----------------------|----------------------------|
------------------|----------------------|----------------------------|
------------------|----------------------|--------x-x--x-------x-x--x-|
------------------|----3----3----3----3--|--5--5--x-x--x-5--5--x-x--x-|
------------------|----3----3----3----3--|--5--5--x-x--x-5--5--x-x--x-|
------------------|----1----1----1----1--|--3--3---------3--3---------|

-------------------------|---------------------|----------------------|
-------------------------|---------------------|----------------------|
--------x-x--x-----------|--3------2--------2--|----------------------|
--5--5--x-x--x-5--5------|--3------3--------3--|----5----5----5----5--|
--5--5--x-x--x-5--5------|--1------3--------3--|----5----5----5----5--|
--3--3---------3--3------|---------1--------1--|----3----3----3----3--|

---------------------|----------------------|----------------------|
---------------------|----------------------|----------------------|
--3------2--------2--|----------------------|--2------------2-2-2--|
--3------3--------3--|----5----5----5----5--|--3------------3-3-3--|
--1------3--------3--|----5----5----5----5--|--3------------3-3-3--|
---------1--------1--|----3----3----3----3--|--1------------1-1-1--|

----------------------|--------------------|-----------------------|
----------------------|--------------------|-----------------------|
--4------------4-4-4--|--3------3----------|--5--5--5--5--5--------|
--5------------5-5-5--|--3------3----------|--5--5--5--5--5--------|
--5------------5-5-5--|--1------1----------|--3--3--3--3--3--------|
--3------------3-3-3--|--------------------|-----------------------|

|----------------------------|-----------------------------||
|----------------------------|-----------------------------||
|--------x-x--x-------x-x--x-|--------x-x--x-------x-x--x-*||
|--5--5--x-x--x-5--5--x-x--x-|--5--5--x-x--x-5--5--x-x--x-*||
|--5--5--x-x--x-5--5--x-x--x-|--5--5--x-x--x-5--5--x-x--x--||
|--3--3---------3--3---------|--3--3---------3--3----------||
|                    |                    ||
|--6b--------------3-|--------------------||
|--------------------|--6r----------------||
|--------------------|-------------------*||
|--------------------|-------------------*||
|--------------------|--------------------||
|--------------------|--------------------||

|----------------------------|----------------------------|
|----------------------------|----------------------------|
|--------x-x--x-------x-x--x-|--------x-x--x-------x-x--x-|
|--5--5--x-x--x-5--5--x-x--x-|--5--5--x-x--x-5--5--x-x--x-|
|--5--5--x-x--x-5--5--x-x--x-|--5--5--x-x--x-5--5--x-x--x-|
|--3--3---------3--3---------|--3--3---------3--3---------|
|                   |                   |
|-------------------|-------------------|
|-------------------|-------------------|
|--0----------------|--0----------------|
|-------------------|-------------------|
|-------------------|-------------------|
|-------------------|-------------------|

|----------------------------|----------------------------|
|----------------------------|----------------------------|
|--------x-x--x-------x-x--x-|--------x-x--x-------x-x--x-|
|--5--5--x-x--x-5--5--x-x--x-|--5--5--x-x--x-5--5--x-x--x-|
|--5--5--x-x--x-5--5--x-x--x-|--5--5--x-x--x-5--5--x-x--x-|
|--3--3---------3--3---------|--3--3---------3--3---------|
|                   |                   |
|-------------------|-------------------|
|-------------------|-------------------|
|--0----------------|--0----------------|
|-------------------|-------------------|
|-------------------|-------------------|
|-------------------|-------------------|


|----------------------------|----------------------------|
|----------------------------|----------------------------|
|--------x-x--x-------x-x--x-|--------x-x--x-------x-x--x-|
|--5--5--x-x--x-5--5--x-x--x-|--5--5--x-x--x-5--5--x-x--x-|
|--5--5--x-x--x-5--5--x-x--x-|--5--5--x-x--x-5--5--x-x--x-|
|--3--3---------3--3---------|--3--3---------3--3---------|
|                        |                          |
|------------------------|--------------------------|
|------------------------|--18~-----------18h15-18r-|
|--17b-----------17r--15-|--------------------------|
|------------------------|--------------------------|
|------------------------|--------------------------|
|------------------------|--------------------------|


|----------------------------|----------------------------|---------------------|
|----------------------------|----------------------------|---------------------|
|--------x-x--x-------x-x--x-|--------x-x--x-------x-x--x-|--3------2--------2--|
|--5--5--x-x--x-5--5--x-x--x-|--5--5--x-x--x-5--5--x-x--x-|--3------3--------3--|
|--5--5--x-x--x-5--5--x-x--x-|--5--5--x-x--x-5--5--x-x--x-|--1------3--------3--|
|--3--3---------3--3---------|--3--3---------3--3---------|---------1--------1--|
|                      |                  |
|----------------------|-------------20b--|
|----------------------|------------------|
|--------------17r-15--|--17b-------------|
|----------------------|------------------|
|----------------------|------------------|
|----------------------|------------------|


----------------------|---------------------|----------------------|
----------------------|---------------------|----------------------|
----------------------|--3------2--------2--|----------------------|
----5----5----5----5--|--3------3--------3--|----5----5----5----5--|
----5----5----5----5--|--1------3--------3--|----5----5----5----5--|
----3----3----3----3--|---------1--------1--|----3----3----3----3--|

|----------------------|----------------------|----------------------|
|----------------------|----------------------|--8------------8-8-x--|
|--2------------2-2-2--|--4------------4-4-4--|--8------------8-8-x--|
|--3------------3-3-3--|--5------------5-5-5--|--8------------8-8-x--|
|--3------------3-3-3--|--5------------5-5-5--|--6------------6-6-x--|
|--1------------1-1-1--|--3------------3-3-3--|----------------------|
|                    |                    |
|--------------------|--------------------|---------11------15--|
|--13----------------|--15----------------|--11-----11------16--|
|--14----------------|--16----------------|--12-----------------|
|--------------------|--------------------|---------------------|
|--------------------|--------------------|---------------------|
|--------------------|--------------------|---------------------|


|--0------------0-0-x--|--1------------1-1-x--|--3------3------3----|
|--0------------0-0-x--|--1------------1-1-x--|--3------3------3----|
|--0------------0-0-x--|--2------------2-2-x--|--4------4------4----|
|--2------------2-2-x--|--3------------3-3-x--|--5------5------5----|
|--2------------2-2-x--|--3------------3-3-x--|--5------5------5----|
|--0------------0-0-x--|--1------------1-1-x--|--3------3------3----|
|                        |                        |
|----------12------15----|----------13------------|
|--12------12------17----|--13------13------13----|
|--12--------------------|--14--------------14----|
|------------------------|------------------------|
|------------------------|------------------------|
|------------------------|------------------------|
Thats all I got...........
Tap to rate this tab
 
# A B C D E F G H I J K L M N O P Q R S T U V W X Y Z