Song name
# A B C D E F G H I J K L M N O P Q R S T U V W X Y Z

Heart - Dreamboat Annie tab

This is the live intro for Dreamboat Annie that Nancy plays in this version:
http://www.youtube.com/watch?v=gQDJ45qJHBQ

I couldn't find any tab so I tried my hand at doing it myself.
Key:
* - Harmonic
/ - slide note
| - Tied notes
^ - strum individually
h - Hammer on

E|------------------------------------------4------4-----------------|
B|------9---------9-/-7----------7/9--5-------5----5-5------5-4-2-0--|
G|------8-------8---/-6------6--------4---------4--4---4----|--------|
D|------9-----9-----/-7----7----------6---6--------6-----6--6--------|
A|------7----------------5-----5------4-4---------^4-------^4--------|
E|--12*----0---------------------------------------------------------|


E|--------------2--------------------2------------------0------------|
B|------2-4-5---5-5------0h2-2/4-4/5------------------0--------------|
G|--2-4-|-|-|---2---2----2-------2----------1-------1----------------|
D|--|-|-|-|-|---2-----2--2-------4--------4---4---4------------------|
A|--4-2-0-|-|---4-------^0-------2--------------2--------------------|
E|--------4-2--^2----------------------0-----------------------------|


E|---4---------4/2-2--------2/4--------------------------------------|
B|---0-0-----------0-----0------5-----5------5----5----5----0-2-4-5--|
G|---4---4---4-----2---2---2----4-------4----2-2----2----2-2----|-|--|
D|--^2-----2------^0-0----------6---6-----6--4---4----4----2----|-|--|
A|-----------------------------^4-4----------2------------^0----2-|--|
E|----------------------------------------------------------------2--|

E|-------------------------2-----------------0----------------*12-------|
B|------5------0h2-2/4-4/5--------------0------0-------------*12--------|
G|--------2----2-------2---------1--------1------1----------*12---12/13-|
D|----------2--2-------4-------4---4---4----4------4-------*12----------|
A|----4-------^0-------2-------------2---------------2------------------|
E|--2------------------------0---------------------------*12------------|


Then the actual song starts. Tell me if I got anything wrong!
Tap to rate this tab
# A B C D E F G H I J K L M N O P Q R S T U V W X Y Z