Song name
# A B C D E F G H I J K L M N O P Q R S T U V W X Y Z

Heart - Kick It Out tab

-----------------------------------------------------------------------------
                             Kick It Out- Heart
                             Little Queen- 1977
                       Words and Music by Ann Wilson
-----------------------------------------------------------------------------
Tabbed by:Duane Baldwin
E-mail: duaneandjulie@gmail.com

Tuning: Standard

Guitar I (Overdriven tone)

Intro

e|-------------------5--x--x--5--|-------------------5--x--x--x--x--5--|
B|--7br--5--7--5-----5--x--x--5--|--7br--5--7--5-----5--x--x--x--x--5--|
G|--7br--5--7--5-----------------|--7br--5--7--5-----------------------|
D|----------------7--------------|----------------7--------------------|
A|----------------0--------------|----------------0--------------------|
E|-------------------------------|-------------------------------------|

e|----------------------------------|---------------------7b3qr--5--7--5--|
B|--7br--5--7--5--------------------|--7b3qr--5--7--5-----7b3qr--5--7--5--|
G|--7br--5--7--5--------------------|--7b3qr--5--7--5---------------------|
D|----------------5--7--4-----4--7--|------------------7------------------|
A|-------------------------7--------|-------------------------------------|
E|----------------------------------|-------------------------------------|

e|--------x--15--15\--|
B|--7--8--x--15--15\--|
G|--7--7--------------|
D|--------------------|
A|--------------------|
E|--------------------|

1st Verse ( Clean tone)

Let all notes ring
e|----------0----------------------------10----------|
B|--------------0--------------------8--------8------|
G|-------------------------------9----------------9--|
D|------2-------------------10-----------------------|
A|--0---------------0---2----------------------------|
E|---------------------------------------------------|

e|-----------------12---------------------10------------|
B|------------10--------10------------8------------0h1--|
G|-------11------------------11---9------------2--------|
D|--12--------------------------------------------------|
A|------------------------------------------------------|
E|------------------------------------------------------|

e|----------0----------------------------10----------|
B|--------------0--------------------8--------8------|
G|-------------------------------9----------------9--|
D|------2-------------------10-----------------------|
A|--0---------------0---2----------------------------|
E|---------------------------------------------------|

e|-----------------12------------------12------------------12--|
B|------------10--------12---10---12--------12---10---12-------|
G|-------11----------------------------------------------------|
D|--12---------------------------------------------------------|
A|-------------------------------------------------------------|
E|-------------------------------------------------------------|

e|--------------12----------12--|
B|--12--10--12------12--10------|
G|------------------------------|
D|------------------------------|
A|------------------------------|
E|------------------------------|

1st Chorus (Overdriven tone)

Palm mute
e|--------------------------------------------------|
B|--------------------------------------------------|
G|--------------------------------------------------|
D|--2--2--2--2--2--2--2--2--2--2--2--2--2--2--2--2--|
A|--0--0--0--0--0--0--0--0--0--0--0--0--0--0--0--0--|
E|--------------------------------------------------|

Palm mute
e|--------------------------------------------------|
B|--------------------------------------------------|
G|--------------------------------------------------|
D|--4--4--4--4--4--4--4--4--4--4--4--4--4--4--4--4--|
A|--2--2--2--2--2--2--2--2--2--2--2--2--2--2--2--2--|
E|--------------------------------------------------|

e|------------------------------|------------------------------------------5-|
B|--3------------------------6--|-------------------------7br--5--7--5-----5-|
G|--2---------7-------5--5---5--|-------------------------7br--5--7--5-------|
D|--0---------7-------5--5------|-2--2--2--2--2--2--2--2----------------7----|
A|-----4/9--------9\--3--3------|-0--0--0--0--0--0--0--0----------------0----|
E|------------------------------|--------------------------------------------|

2nd Verse (Clean Tone)

Let all notes ring
e|--------------0------------------------10----------|
B|----------0------------------------8--------8------|
G|------2------------------------9----------------9--|
D|--------------------------10-----------------------|
A|--0---------------0---2----------------------------|
E|---------------------------------------------------|

e|----------------12---------------------10--|
B|-----------10--------10------------8-------|
G|------11------------------11---9-----------|
D|--0----------------------------------------|
A|-------------------------------------------|
E|-------------------------------------------|

1st Fill (Overdriven)

e|--------5----------------|
B|-------------------------|
G|--2/5-------5/6~~~~~-----|
D|-------------------------|
A|-------------------------|
E|-------------------------|

(Clean tone)

e|---------------10----------|
B|-----------8--------8------|
G|-------9----------------9--|
D|--10-----------------------|
A|---------------------------|
E|---------------------------|

e|----------------12------------------12------------------12--|
B|-----------10--------12---10---12--------12---10---12-------|
G|------11----------------------------------------------------|
D|--0---------------------------------------------------------|
A|------------------------------------------------------------|
E|------------------------------------------------------------|

e|--------------12--12\--|
B|--12--10--12------12\--|
G|-----------------------|
D|-----------------------|
A|-----------------------|
E|-----------------------|

3rd Verse

Let all notes ring
e|--------------0------------------------10----------|
B|----------0------------------------8--------8------|
G|------2------------------------9----------------9--|
D|--------------------------10-----------------------|
A|--0---------------0---2----------------------------|
E|---------------------------------------------------|

e|----------------12---------------------10--|
B|-----------10--------10------------8-------|
G|------11------------------11---9-----------|
D|--0----------------------------------------|
A|-------------------------------------------|
E|-------------------------------------------|

2nd Fill (Overdriven)

e|--------5----------------|
B|-------------------------|
G|--2/5-------5/6~~~~~-----|
D|-------------------------|
A|-------------------------|
E|-------------------------|

(Clean tone)

e|---------------10----------|
B|-----------8--------8------|
G|-------9----------------9--|
D|--10-----------------------|
A|---------------------------|
E|---------------------------|

e|----------------12------------------12------------------12--|
B|-----------10--------12---10---12--------12---10---12-------|
G|------11----------------------------------------------------|
D|--0---------------------------------------------------------|
A|------------------------------------------------------------|
E|------------------------------------------------------------|

e|--------------12---------12\--|
B|--12--10--12------1210--12\--|
G|------------------------------|
D|------------------------------|
A|------------------------------|
E|------------------------------|

2nd Chorus (Overdriven tone)

Palm mute
e|--------------------------------|-----------------------------------------|
B|--------------------------------|-----------------------2/4---------------|
G|--------------------2-----------|-----------------------2/4---6--4--4--2--|
D|--2--2--2--2--2--2-----5--4--2--|--4--4--4--4--4--4--4--------6--4--4--2--|
A|--0--0--0--0--0--0--------------|--2--2--2--2--2--2--2--------------------|
E|--------------------------------|-----------------------------------------|

e|------------------------------|------------------------------------------5-|
B|--3------------------------6--|-------------------------7br--5--7--5-----5-|
G|--2---------7-------5--5---5--|-------------------------7br--5--7--5-------|
D|--0---------7-------5--5------|-2--2--2--2--2--2--2--2----------------7----|
A|-----4/9--------9\--3--3------|-0--0--0--0--0--0--0--0----------------0----|
E|------------------------------|--------------------------------------------|

e|--x--x--5--5------------------5--|--x--x--7--7-----------------------|
B|--x--x--5--5--7b--5--7--5-----5--|--x--x--7--7-----------------------|
G|--------------7b--5--7--5--7-----|-----------------------------------|
D|---------------------------0-----|--------------4--4--6--4--4--4--6--|
A|---------------------------------|--------------2--2--2--2--2--2--2--|
E|---------------------------------|-----------------------------------|

e|------------------------------|-------------------------|
B|--3------------------------6--|-------------------------|
G|--2---------7-------5--5---5--|-------------------------|
D|--0---------7-------5--5------|-2--2--2--2--2--2--2--2--|
A|-----4/9--------9\--3--3------|-0--0--0--0--0--0--0--0--|
E|------------------------------|-------------------------|

Main Solo 

e|-----17pbr----|--14------14----------14------14--14----------|
B|--------------|------17------17--14------17----------14--15--|
G|--------------|----------------------------------------------|
D|--------------|----------------------------------------------|
A|--------------|----------------------------------------------|
E|--------------|----------------------------------------------|

e|------------------------------------------------17--15--14--|
B|--14--15--15--14h15p14------14--15--15--14--15--------------|
G|------------------------16----------------------------------|
D|------------------------------------------------------------|
A|------------------------------------------------------------|
E|------------------------------------------------------------|

e|--15--14h15p14------14------14-------14------14------14------|
B|----------------16------16------17b------16------16------16--|
G|-------------------------------------------------------------|
D|-------------------------------------------------------------|
A|-------------------------------------------------------------|
E|-------------------------------------------------------------|

e|----------------------------------------------------------------|
B|------------------------------------12--14p12--14p12------------|
G|--------------9--9h11p9------11h13--------------------13--16br--|
D|--8/11--8/11-------------11-------------------------------------|
A|----------------------------------------------------------------|
E|----------------------------------------------------------------|

e|--15b--15b--15b--12--15--13--12------13--12--|
B|---------------------------------12----------|
G|---------------------------------------------|
D|---------------------------------------------|
A|---------------------------------------------|
E|---------------------------------------------|

e|--------------------------14hb------------------------|
B|--15--13--12------12hbr---------15--14--15--15p14p12--|
G|--------------14--------------------------------------|
D|------------------------------------------------------|
A|------------------------------------------------------|
E|------------------------------------------------------|

e|-----------------------------------|
B|--12--14--14hbr--12----------------|
G|---------------------14br--12--11--|
D|-----------------------------------|
A|-----------------------------------|
E|-----------------------------------|


3rd Chorus

e|------------------------------------------------|
B|------------------------------------------------|
G|-----------------2h4p2-----2h4p2-----2--4brbrb--|
D|--2--2--2--2--4---------4---------4-------------|
A|--0--0--0---------------------------------------|
E|------------------------------------------------|

e|------------------------------------|----------5-------------|
B|---------------------------------4--|--3--5/7--5--1--1--3/6--|
G|----------------------4--6p4-----4--|--2--5/7-----0--0--2/5--|
D|--4--4--4--4--4--4/6----------6-----|------------------------|
A|--2--2--2--2--2---------------------|------------------------|
E|------------------------------------|------------------------|

e|--5--5--5--5--5--5--5--5--5--5--5--5--5--5/8--7--|
B|--5--5--5--5--5--5--5--5--5--5--5--5--5--5/8--7--|
G|-------------------------------------------------|
D|-------------------------------------------------|
A|-------------------------------------------------|
E|-------------------------------------------------|

e|--7--7--7--7--7--7--7--7--7--7--7--7--7--7--7--7--|----------5-------------|
B|--7--7--7--7--7--7--7--7--7--7--7--7--7--7--7--7--|--3--5/7--5--1--1--3/6--|
G|--------------------------------------------------|--2--5/7-----0--0--2/5--|
D|--------------------------------------------------|------------------------|
A|--------------------------------------------------|------------------------|
E|--------------------------------------------------|------------------------|

Outro

e|--5---------------------5---------------------5--|------------------------|
B|--5--7b3qr--5--7--5-----5--7b3qr--5--7--5-----5--|--7b3qr--5--7--5--------|
G|-----7b3qr--5--7--5--------7b3qr--5--7--5--------|--7b3qr--5--7--5-----2--|
D|---------------------7---------------------7-----|------------------7--2--|
A|-------------------------------------------------|---------------------0--|
E|-------------------------------------------------|------------------------|

Outro solo

e|------------------------------------------------------------------------|
B|---------------------17fb+q--17--16--15-------15--16--17----------------|
G|---------14--16--14----------------------16b--------------16br--14fb+q--|
D|--13/16-----------------------------------------------------------------|
A|------------------------------------------------------------------------|
E|------------------------------------------------------------------------|


Guitar II (Overdriven tone)

e|----------------------------------------|
B|----------------------------------------|
G|--8\7--5--7--5--0--2--------------------|
D|--8\7--5--7--5--0--2--2--4--2--2--4--2--|
A|-------------------0--0--0--0--0--0--0--|
E|----------------------------------------|

e|----------------------------------------|
B|----------------------------------------|
G|--8\7--5--7--5--0--2--------------------|
D|--8\7--5--7--5--0--2--2--4--2--2--4--2--|
A|-------------------0--0--0--0--0--0--0--|
E|----------------------------------------|

e|----------------------------------------|
B|----------------------------------------|
G|--8\7--5--7--5--0--2--------------------|
D|--8\7--5--7--5--0--2--2--4--2--2--4--2--|
A|-------------------0--0--0--0--0--0--0--|
E|----------------------------------------|

e|--------------------------------------3--|
B|--------------------------------------3--|
G|--8\7--5--7--5--0----4br--2--4--2-----0--|
D|--8\7--5--7--5--0------------------4--0--|
A|--------------------------------------2--|
E|--------------------------------------3--|


1st Verse (Clean tone)


Let all notes ring
e|--------------0---------------------------0----------|
B|------------------0---------------------------3------|
G|----------2---------------------------0-----------0--|
D|------2---------------------------2------------------|
A|--0-------------------0---2---3----------------------|
E|-----------------------------------------------------|

e|--------------0-----------------------0---------------0--|
B|----------3-------3---------------3---------------0------|
G|------2---------------2-------0---------------2----------|
D|--0-----------------------3---------------0--------------|
A|---------------------------------------------------------|
E|---------------------------------------------------------|

e|--------------0---------------------------0----------|
B|------------------0---------------------------3------|
G|----------2---------------------------0-----------0--|
D|------2---------------------------2------------------|
A|--0-------------------0---2---3----------------------|
E|-----------------------------------------------------|

e|--------------0---------------0---------------0--|
B|----------3-------3-------3-------3--------3-----|
G|------2---------------2---------------2----------|
D|--0----------------------------------------------|
A|-------------------------------------------------|
E|-------------------------------------------------|

e|--------------0-----------0--|
B|--3-------3-------3-------3--|
G|------2---------------2------|
D|-----------------------------|
A|-----------------------------|
E|-----------------------------|

1st Chorus (Overdriven tone)

Palm mute
e|--------------------------------------------------|
B|--------------------------------------------------|
G|--------------------------------------------------|
D|--2--2--2--2--2--2--2--2--2--2--2--2--2--2--2--2--|
A|--0--0--0--0--0--0--0--0--0--0--0--0--0--0--0--0--|
E|--------------------------------------------------|

Palm mute
e|--------------------------------------------------|
B|--------------------------------------------------|
G|--------------------------------------------------|
D|--4--4--4--4--4--4--4--4--4--4--4--4--4--4--4--4--|
A|--2--2--2--2--2--2--2--2--2--2--2--2--2--2--2--2--|
E|--------------------------------------------------|

e|------------------------------|------------------------------------------|
B|-------------3-------------6--|------------------------------------------|
G|-------2--4--2-------5--7--5--|-------------------8\7--5--7--5--0--5--2--|
D|--2h4-----------4/7-----------|-2--2--4--2--2--4--8\7--5--7--5--0-----2--|
A|------------------------------|---------------------------------------0--|
E|------------------------------|------------------------------------------|

2nd Verse (Clean tone)

Let all notes ring
e|--------------0---------------------------0----------|
B|------------------0---------------------------3------|
G|----------2---------------------------0-----------0--|
D|------2---------------------------2------------------|
A|--0-------------------0---2---3----------------------|
E|-----------------------------------------------------|

e|--------------0-----------------------0---------------0--|
B|----------3-------3---------------3---------------0------|
G|------2---------------2-------0---------------2----------|
D|--0-----------------------3---------------0--------------|
A|---------------------------------------------------------|
E|---------------------------------------------------------|

e|--------------0---------------------------0----------|
B|------------------0---------------------------3------|
G|----------2---------------------------0-----------0--|
D|------2---------------------------2------------------|
A|--0-------------------0---2---3----------------------|
E|-----------------------------------------------------|

e|--------------0---------------0---------------0--|
B|----------3-------3-------3-------3--------3-----|
G|------2---------------2---------------2----------|
D|--0----------------------------------------------|
A|-------------------------------------------------|
E|-------------------------------------------------|

e|--------------0---|
B|--3-------3-------|
G|------2-----------|
D|------------------|
A|------------------|
E|------------------|

3rd Verse

e|--------------0---------------------------0----------|
B|------------------0---------------------------3------|
G|----------2---------------------------0-----------0--|
D|------2---------------------------2------------------|
A|--0-------------------0---2---3----------------------|
E|-----------------------------------------------------|

e|--------------0-----------------------0---------------0--|
B|----------3-------3---------------3---------------0------|
G|------2---------------2-------0---------------2----------|
D|--0-----------------------3---------------0--------------|
A|---------------------------------------------------------|
E|---------------------------------------------------------|

e|--------------0---------------------------0----------|
B|------------------0---------------------------3------|
G|----------2---------------------------0-----------0--|
D|------2---------------------------2------------------|
A|--0-------------------0---2---3----------------------|
E|-----------------------------------------------------|

e|--------------0---------------0---------------0--|
B|----------3-------3-------3-------3--------3-----|
G|------2---------------2---------------2----------|
D|--0----------------------------------------------|
A|-------------------------------------------------|
E|-------------------------------------------------|

e|--------------0-----------0--|
B|--3-------3-------3-------3--|
G|------2---------------2------|
D|-----------------------------|
A|-----------------------------|
E|-----------------------------|

2nd Chorus (overdriven tone)

Palm mute
e|--------------------------------------------------|
B|--------------------------------------------------|
G|--------------------------------------------------|
D|--2--2--2--2--2--2--2--2--2--2--2--2--2--2--2--2--|
A|--0--0--0--0--0--0--0--0--0--0--0--0--0--0--0--0--|
E|--------------------------------------------------|

Palm mute
e|--------------------------------------------------|
B|--------------------------------------------------|
G|--------------------------------------------------|
D|--4--4--4--4--4--4--4--4--4--4--4--4--4--4--4--4--|
A|--2--2--2--2--2--2--2--2--2--2--2--2--2--2--2--2--|
E|--------------------------------------------------|

e|------------------------------|------------------------------------------|
B|-------------3-------------6--|------------------------------------------|
G|-------2--4--2-------5--7--5--|-------------------8\7--5--7--5--0--5--2--|
D|--2h4-----------4/7-----------|-2--2--4--2--2--4--8\7--5--7--5--0-----2--|
A|------------------------------|---------------------------------------0--|
E|------------------------------|------------------------------------------|

e|------------------------------------------|
B|------------------------------------------|
G|-------------------8\7--5--7--5--0--5-----|
D|-2--2--4--2--2--4--8\7--5--7--5--0-----4--|
A|---------------------------------------2--|
E|------------------------------------------|

e|--------------------------------|------------------------------|
B|--------------------------------|-------------3-------------6--|
G|--------------------------------|-------2--4--2-------5--7--5--|
D|--6--4--4--6--4--4--6--4--4--6--|--2h4-----------4/7-----------|
A|--2--2--2--2--2--2--2--2--2--2--|------------------------------|
E|--------------------------------|------------------------------|

e|--------------------------|
B|--------------------------|
G|--------------------------|
D|--2--2--2--2--2--2--2--2--|
A|--0--0--0--0--0--0--0--0--|
E|--------------------------|

Main Solo

e|---------------------------------------------|
B|---------------------------------------------|
G|--------------------------1---2--------------|
D|----------------------4-----------4---6---7--|
A|--4---4---4---4---4---------------2---4---5--|
E|--2---2---2---2---2--------------------------|

e|-----------------------------------------|
B|----------------------------------3------|
G|------------------------------2-------4--|
D|--7---7---7---7---0---2---4--------------|
A|--5---5---5---5--------------------------|
E|-----------------------------------------|

e|---------------------------------|-----------------|-----------------|
B|---------------------------------|-----------------|-----------------|
G|------------------4---2---1------|--9-----9-----9--|---2-------------|
D|--4---4---4---4---------------4--|--9-----9-----9--|---2------5------|
A|--2---2---2---2------------------|--7-----7-----7--|---0------5------|
E|---------------------------------|-----------------|----------3------|

e|-------------|----------------|
B|-------------|----------------|
G|------7------|----7\----------|
D|------7------|----7\----------|
A|------5------|----5\----------|
E|-------------|---------5/12\--|

3rd Chorus

Palm mute
e|--------------------------------------------------|
B|--------------------------------------------------|
G|--------------------------------------------------|
D|--2--2--2--2--2--2--2--2--2--2--2--2--2--2--2--2--|
A|--0--0--0--0--0--0--0--0--0--0--0--0--0--0--0--0--|
E|--------------------------------------------------|

Palm mute
e|--------------------------------------------------|
B|--------------------------------------------------|
G|--------------------------------------------------|
D|--4--4--4--4--4--4--4--4--4--4--4--4--4--4--4--4--|
A|--2--2--2--2--2--2--2--2--2--2--2--2--2--2--2--2--|
E|--------------------------------------------------|

e|-----------------------------|
B|--3-------7---------------6--|
G|--2-------7------5--5-----5--|
D|--0--------------5--5--------|
A|-----4/9-----9\--3--3--------|
E|-----------------------------|

Palm mute
e|--------------------------------------------------|
B|--------------------------------------------------|
G|--------------------------------------------------|
D|--2--2--2--2--2--2--2--2--2--2--2--2--2--2--5--4--|
A|--0--0--0--0--0--0--0--0--0--0--0--0--0--0--3--2--|
E|--------------------------------------------------|

Palm mute
e|-----------------------------------------------|
B|-----------------------------------------------|
G|-----------------------------------------------|
D|--4--4--4--4--4--4--4--4--4--4--4--4--4--4--4--|
A|--2--2--2--2--2--2--2--2--2--2--2--2--2--2--2--|
E|-----------------------------------------------|

e|-----------------------------5--|
B|--3-------7---------------6--5--|
G|--2-------7------5--5-----5-----|
D|--0--------------5--5-----------|
A|-----4/9-----9\--3--3-----------|
E|--------------------------------|

Outro

e|--5---------------------5---------------------5--|------------------------|
B|--5--7b3qr--5--7--5-----5--7b3qr--5--7--5-----5--|--7b3qr--5--7--5--------|
G|-----7b3qr--5--7--5--------7b3qr--5--7--5--------|--7b3qr--5--7--5-----2--|
D|---------------------7---------------------7-----|------------------7--2--|
A|-------------------------------------------------|---------------------0--|
E|-------------------------------------------------|------------------------|

e|-----5\------|
B|-----5\------|
G|-----6\------|
D|-----7\------|
A|-----7\------|
E|-----5\------|


************************************

| /   slide up
| \   slide down
| h   hammer-on
| p   pull-off
| ~   vibrato
| +   harmonic
| x   Mute note
| b   Bend
| pb  Pre-bend
| br  Bend release
| pbr Pre-bend release
| brb Bend release bend
| qb Quater bend
| hb Half Bend
|    b3q Three quater bend
|
************************************
Tap to rate this tab
 
# A B C D E F G H I J K L M N O P Q R S T U V W X Y Z