Song name
# A B C D E F G H I J K L M N O P Q R S T U V W X Y Z

Heart - Crazy On You tab

(Nancy Wilson)

     Shuffle Rhytm On  - Tempo = 148                
     |-----------------3----------------|           
     E                               E  E  S  S E   
E||------------------------------------------------|
B||-------------------------------------3--1p-0-L--|
G||--2s------------------------------4-----2p-0-0--|
D||------------------------------------------------|
A||------------------------------------------------|
E||------------------------------------------------|


  E  E  S  S  S S E  E  E  E      E  E  E  E  E  E  E   E   
-------------------------------|---------------------------|
--------3p-1p-0---1------------|---------------------------|
----------------2----2---------|-----0--------4-----5S--0--|
---------------------------2S--|--4-----------4-----5S--0--|
--0--0------------0-----0------|--------0--2-----0---------|
-------------------------------|---------------------------|


                                              |--3--|         
  E  E  S  S  S S E  E  E  E      E  E  E  E  E  E  E  E  E   
-------------------------------|-----------------------------|
--------3p-1p-0---1------------|-----------------------------|
----------------2----2---------|-----0--------------2--------|
---------------------------2S--|--4--------0-----2-----------|
--0--0------------0-----0------|--------0-----3--------2-----|
-------------------------------|--------------------------0--|


               |---3--|  |---3---|                                   
   E  E  E  E  E   E  E  E   E   E     E  E  S  S  S S E  E  E  E    
------------------------------------|-------------------------------|
------------------------------------|--------3p-1p-0---1------------|
--/4-----2-----0h--1-----4p--2p--0--|--2--2----------2----2---------|
-------------------------0----------|---------------------------2S--|
--/5-----4-----2---L-----x----------|--0--0------------0-----0------|
------0-----0---------0--3----------|-------------------------------|


  E  E  E  E  E  E  E   E     E  E  S  S  S S E  E  E  E    
---------------------------|-------------------------------|
---------------------------|--------3p-1p-0---1------------|
-----0--------4-----5S--0--|----------------2----2---------|
--4-----------4-----5S--0--|------------------0--------2S--|
--------0--0-----0---------|--0--0------------------0------|
---------------------------|-------------------------------|


                                                        NH    
              |--3--|  |--3--|             |------3-----|     
  E  E  E  E  E  E  E  E  E  E     S S E   Q    Q       Q     
--------------------------------|----------------------------|
-----------------------3--------|--5-3----10----0----<>12----|
-----0--------4--------4-----4--|------4---7----0----<>12----|
--4--------------4--------------|---------------0----<>12----|
--------0--0--0-----0-----0-----|----------0-----------------|
--------------------------------|----------------------------|


  E  E  S  S  S S E  E  E  E      E  E  E  E  E  E  E   E   
-------------------------------|---------------------------|
--------3p-1p-0---1------------|---------------------------|
----------------2----2---------|-----0--------4-----5S--0--|
---------------------------2S--|--4-----------4-----5S--0--|
--0--0------------0-----0------|--------0--0-----0---------|
-------------------------------|---------------------------|


                                              |--3--|  |--3--|   
  E  E  S  S  S S E  E  E  E      E  E  E  E  E  E  E  E  E  E   
-------------------------------|--------------------------------|
--------3p-1p-0---1------------|--------------------------------|
----------------2----2---------|-----0--------------------------|
---------------------------2S--|--4--------0--------4--------2--|
--0--0------------0-----0------|--------0--------5--------3-----|
-------------------------------|--------------5--------3--------|


  E  E  S  S  S S E  E  E  E   
------------------------------|
--------3p-1p-0---1-----------|
----------------2----2--------|
---------------------------0--|
--0--0------------0-----0-----|
------------------------------|


  Shuffle Rhytm off - Tenpo = 140                       
  E                               E  E  E  E  E  E  E   
-------------------------------------0-----------------|
----------------------------------------3--1--0--------|
-------------------------------------------------2--0--|
----------------------------------0--------------------|
-------------------------------------------------------|
--3-------------------------------3--------------------|


                                 Tempo = 90                          
  E  E  S  S  S S E  E  E  E     E          E  E  E  E  E  H         
------------------------------|-------------------0-----------------|
--------3p-1p-0---1-----------|----------------0-----0--------------|
----------------2----2-----0--|--1----------1-----1-----1--L--------|
------------------------------|----------------0-----0--------------|
------------------------------|-------------2-----------2--L--------|
--2--2------------2-----2-----|--0----------------------------------|


  Q.      S  T  T E  E  E  E     E  E  E  E  H         
------------------------------|-----------------------|
--6~------5h-6p-5-0-----5-----|-----------------------|
---------------------5-----7--|--5--4-----------------|
--0---------------------------|--------6--L--L--------|
------------------------------|-----------------------|
------------------------------|-----------0--L--------|


           Tempo = 128                                                          
  Am                                        F                                   
  E                    S S E  S S E  S S E  E     S S S S E  S S E  S S E  S S  
--0--------------------0-0-0--0-0-0--0-0-0--1--|--L-1-1-1-1--1-1-1--1-1-1--1-1-|
--1--------------------1-1-1--1-1-1--1-1-1--1--|--L-1-1-1-1--1-1-1--1-1-1--1-1-|
--2--------------------2-2-2--2-2-2--2-2-2--2--|--L-2-2-2-2--2-2-2--2-2-2--2-2-|
--2--------------------2-2-2--2-2-2--2-2-2--3--|--L-3-3-3-3--3-3-3--3-3-3--3-3-|
--0--------------------0-0-0--0-0-0--0-0-0--3--|--L-3-3-3-3--3-3-3--3-3-3--3-3-|
--------------------------------------------1--|--L-1-1-1-1--1-1-1--1-1-1--1-1-|


  Am                      F                                   
  E  S S E  S S E  S S E  E     S S S S E  S S E  S S E  S S  
--0--0-0-0--0-0-0--0-0-0--1--|--L-1-1-1-1--1-1-1--1-1-1--1-1-|
--1--1-1-1--1-1-1--1-1-1--1--|--L-1-1-1-1--1-1-1--1-1-1--1-1-|
--2--2-2-2--2-2-2--2-2-2--2--|--L-2-2-2-2--2-2-2--2-2-2--2-2-|
--2--2-2-2--2-2-2--2-2-2--3--|--L-3-3-3-3--3-3-3--3-3-3--3-3-|
--0--0-0-0--0-0-0--0-0-0--3--|--L-3-3-3-3--3-3-3--3-3-3--3-3-|
--------------------------1--|--L-1-1-1-1--1-1-1--1-1-1--1-1-|


  Am                      F                                   
  E  S S E  S S E  S S E  E     S S S S E  S S E  S S E  S S  
--0--0-0-0--0-0-0--0-0-0--1--|--L-1-1-1-1--1-1-1--1-1-1--1-1-|
--1--1-1-1--1-1-1--1-1-1--1--|--L-1-1-1-1--1-1-1--1-1-1--1-1-|
--2--2-2-2--2-2-2--2-2-2--2--|--L-2-2-2-2--2-2-2--2-2-2--2-2-|
--2--2-2-2--2-2-2--2-2-2--3--|--L-3-3-3-3--3-3-3--3-3-3--3-3-|
--0--0-0-0--0-0-0--0-0-0--3--|--L-3-3-3-3--3-3-3--3-3-3--3-3-|
--------------------------1--|--L-1-1-1-1--1-1-1--1-1-1--1-1-|


  Am                      F                                   
  E  S S E  S S E  S S E  E     S S S S E  S S E  S S E  S S  
--0--0-0-0--0-0-0--0-0-0--1--|--L-1-1-1-1--1-1-1--1-1-1--1-1-|
--1--1-1-1--1-1-1--1-1-1--1--|--L-1-1-1-1--1-1-1--1-1-1--1-1-|
--2--2-2-2--2-2-2--2-2-2--2--|--L-2-2-2-2--2-2-2--2-2-2--2-2-|
--2--2-2-2--2-2-2--2-2-2--3--|--L-3-3-3-3--3-3-3--3-3-3--3-3-|
--0--0-0-0--0-0-0--0-0-0--3--|--L-3-3-3-3--3-3-3--3-3-3--3-3-|
--------------------------1--|--L-1-1-1-1--1-1-1--1-1-1--1-1-|


  Am                      G                              F   
  E  S S E  S S E  S S E  E     S S S S E  S S E  S S E  E   
--0--0-0-0--0-0-0--0-0-0--3--|--L-3-3-3-3--3-3-3--3-3-3--1--|
--1--1-1-1--1-1-1--1-1-1--3--|--L-3-3-3-3--3-3-3--3-3-3--1--|
--2--2-2-2--2-2-2--2-2-2--4--|--L-4-4-4-4--4-4-4--4-4-4--2--|
--2--2-2-2--2-2-2--2-2-2--5--|--L-5-5-5-5--5-5-5--5-5-5--3--|
--0--0-0-0--0-0-0--0-0-0--5--|--L-5-5-3-5--5-5-5--5-5-5--3--|
--------------------------3--|--L-3-3-3-3--3-3-3--3-3-3--1--|


                                  Am                              
  S S S S E  S S E  S S E  S S    S  S S S E  S S S S S S E  S S  
--L-1-1-1-1--1-1-1--1-1-1--1-1-|--0--0-0-0-0--0-0-0-0-0-0-0--0-0-|
--L-1-1-1-1--1-1-1--1-1-1--1-1-|--1--1-1-1-1--1-1-1-1-1-1-1--1-1-|
--L-2-2-2-2--2-2-2--2-2-2--2-2-|--2--2-2-2-2--2-2-2-2-2-2-2--2-2-|
--L-3-3-3-3--3-3-3--3-3-3--3-3-|--2--2-2-2-2--2-2-2-2-2-2-2--2-2-|
--L-3-3-3-3--3-3-3--3-3-3--3-3-|--0--0-0-0-0--0-0-0-0-0-0-0--0-0-|
--L-1-1-1-1--1-1-1--1-1-1--1-1-|---------------------------------|


  C                                Dm7                              
  S S S S E  S S S S S S E  S S    S   S S S E  S S S S S S E  S S  
--0-0-0-0-0--0-0-0-0-0-0-0--0-0-|--1---1-1-1-1--1-1-1-1-1-1-1--1-1-|
--1-1-1-1-1--1-1-1-1-1-1-1--1-1-|--1---1-1-1-1--1-1-1-1-1-1-1--1-1-|
--0-0-0-0-0--0-0-0-0-0-0-0--0-0-|--2---2-2-2-2--2-2-2-2-2-2-2--2-2-|
--2-2-2-2-2--2-2-2-2-2-2-2--2-2-|--0---0-0-0-0--0-0-0-0-0-0-0--0-0-|
--3-3-3-3-3--3-3-3-3-3-3-3--3-3-|----------------------------------|
--------------------------------|----------------------------------|


  E7                                Am                              
  S  S S S E  S S S S S S E  S S    S  S S S E  S S S S S S E  S S  
--0--0-0-0-0--0-0-0-0-0-0-0--0-0-|--0--0-0-0-0--0-0-0-0-0-0-0--0-0-|
--3--3-3-3-3--3-3-3-3-3-3-3--3-3-|--1--1-1-1-1--1-1-1-1-1-1-1--1-1-|
--1--1-1-1-2--1-1-1-1-1-1-1--1-1-|--2--2-2-2-2--2-2-2-2-2-2-2--2-2-|
--0--0-0-0-0--0-0-0-0-0-0-0--0-0-|--2--2-2-2-2--2-2-2-2-2-2-2--2-2-|
--2--2-2-2-2--2-2-2-2-2-2-2--2-2-|--0--0-0-0-0--0-0-0-0-0-0-0--0-0-|
---------------------------------|---------------------------------|


  C                                Dm7                              
  S S S S E  S S S S S S E  S S    S   S S S E  S S S S S S E  S S  
--0-0-0-0-0--0-0-0-0-0-0-0--0-0-|--1---1-1-1-1--1-1-1-1-1-1-1--1-1-|
--1-1-1-1-1--1-1-1-1-1-1-1--1-1-|--1---1-1-1-1--1-1-1-1-1-1-1--1-1-|
--0-0-0-0-0--0-0-0-0-0-0-0--0-0-|--2---2-2-2-2--2-2-2-2-2-2-2--2-2-|
--2-2-2-2-2--2-2-2-2-2-2-2--2-2-|--0---0-0-0-0--0-0-0-0-0-0-0--0-0-|
--3-3-3-3-3--3-3-3-3-3-3-3--3-3-|----------------------------------|
--------------------------------|----------------------------------|


  E7                                                                      
  S  S S S E  S S S S S S E  S S    W                   W                 
--0--0-0-0-0--0-0-0-0-0-0-0--0-0-|-------------------|-------------------|
--3--3-3-3-3--3-3-3-3-3-3-3--3-3-|-------------------|-------------------|
--1--1-1-1-2--1-1-1-1-1-1-1--1-1-|-------------------|-------------------|
--0--0-0-0-0--0-0-0-0-0-0-0--0-0-|-------------------|-------------------|
--2--2-2-2-2--2-2-2-2-2-2-2--2-2-|-------------------|-------------------|
---------------------------------|-------------------|-------------------|


                                          F              G               
  W                   W                   S S S S E  S S S S S S E  S S  
-------------------|-------------------|--1-1-1-1-1--1-1-3-3-3-3-3--3-3-|
-------------------|-------------------|--1-1-1-1-1--1-1-3-3-3-3-3--3-3-|
-------------------|-------------------|--2-2-2-2-2--2-2-4-4-4-4-4--4-4-|
-------------------|-------------------|--3-3-3-3-3--3-3-5-5-5-5-5--5-5-|
-------------------|-------------------|--3-3-3-3-3--3-3-5-5-5-5-5--5-5-|
-------------------|-------------------|--1-1-1-1-1--1-1-3-3-3-3-3--3-3-|


  C             F                 Dm7                           
  S S S S E  E  S S S S E  S S    E   S S E  S S E  S S E  S S  
--3-3-3-3-3--1--1-1-1-1-1--1-1-|--1---1-1-1--1-1-1--1-1-1--1-1-|
--5-5-5-5-5--1--1-1-1-1-1--1-1-|--1---1-1-1--1-1-1--1-1-1--1-1-|
--5-5-5-5-5--2--2-2-2-2-2--2-2-|--2---2-2-2--2-2-2--2-2-2--2-2-|
--5-5-5-5-5--3--3-3-3-3-3--3-3-|--0---0-0-0--0-0-0--0-0-0--0-0-|
--3-3-3-3-3--3--3-3-3-3-3--3-3-|-------------------------------|
-------------1--1-1-1-1-1--1-1-|-------------------------------|


  E7                             Am                      F   
  E  S S E  S S E  S S E  S S    E  S S E  S S E  S S E  E   
--0--0-0-0--0-0-0--0-0-0--0-0-|--0--0-0-0--0-0-0--0-0-0--1--|
--3--3-3-3--3-3-3--3-3-3--3-3-|--1--1-1-1--1-1-1--1-1-1--1--|
--1--1-1-2--1-1-1--1-1-1--1-1-|--2--2-2-2--2-2-2--2-2-2--2--|
--0--0-0-0--0-0-0--0-0-0--0-0-|--2--2-2-2--2-2-2--2-2-2--3--|
--2--2-2-2--2-2-2--2-2-2--2-2-|--0--0-0-0--0-0-0--0-0-0--3--|
------------------------------|--------------------------1--|


                                  Am                      F   
  S S S S E  S S E  S S E  S S    E  S S E  S S E  S S E  E   
--L-1-1-1-1--1-1-1--1-1-1--1-1-|--0--0-0-0--0-0-0--0-0-0--1--|
--L-1-1-1-1--1-1-1--1-1-1--1-1-|--1--1-1-1--1-1-1--1-1-1--1--|
--L-2-2-2-2--2-2-2--2-2-2--2-2-|--2--2-2-2--2-2-2--2-2-2--2--|
--L-3-3-3-3--3-3-3--3-3-3--3-3-|--2--2-2-2--2-2-2--2-2-2--3--|
--L-3-3-3-3--3-3-3--3-3-3--3-3-|--0--0-0-0--0-0-0--0-0-0--3--|
--L-1-1-1-1--1-1-1--1-1-1--1-1-|--------------------------1--|


                                  Am                      G   
  S S S S E  S S E  S S E  S S    E  S S E  S S E  S S E  E   
--L-1-1-1-1--1-1-1--1-1-1--1-1-|--0--0-0-0--0-0-0--0-0-0--3--|
--L-1-1-1-1--1-1-1--1-1-1--1-1-|--1--1-1-1--1-1-1--1-1-1--3--|
--L-2-2-2-2--2-2-2--2-2-2--2-2-|--2--2-2-2--2-2-2--2-2-2--4--|
--L-3-3-3-3--3-3-3--3-3-3--3-3-|--2--2-2-2--2-2-2--2-2-2--5--|
--L-3-3-3-3--3-3-3--3-3-3--3-3-|--0--0-0-0--0-0-0--0-0-0--5--|
--L-1-1-1-1--1-1-1--1-1-1--1-1-|--------------------------3--|


                           F                                   
  S S S S E  S S E  S S E  E     S S S S E  S S E  S S E  S S  
--L-3-3-3-3--3-3-3--3-3-3--1--|--L-1-1-1-1--1-1-1--1-1-1--1-1-|
--L-3-3-3-3--3-3-3--3-3-3--1--|--L-1-1-1-1--1-1-1--1-1-1--1-1-|
--L-4-4-4-4--4-4-4--4-4-4--2--|--L-2-2-2-2--2-2-2--2-2-2--2-2-|
--L-5-5-5-5--5-5-5--5-5-5--3--|--L-3-3-3-3--3-3-3--3-3-3--3-3-|
--L-5-5-3-5--5-5-5--5-5-5--3--|--L-3-3-3-3--3-3-3--3-3-3--3-3-|
--L-3-3-3-3--3-3-3--3-3-3--1--|--L-1-1-1-1--1-1-1--1-1-1--1-1-|


  Am                                C                              
  S  S S S E  S S S S S S E  S S    S S S S E  S S S S S S E  S S  
--0--0-0-0-0--0-0-0-0-0-0-0--0-0-|--0-0-0-0-0--0-0-0-0-0-0-0--0-0-|
--1--1-1-1-1--1-1-1-1-1-1-1--1-1-|--1-1-1-1-1--1-1-1-1-1-1-1--1-1-|
--2--2-2-2-2--2-2-2-2-2-2-2--2-2-|--0-0-0-0-0--0-0-0-0-0-0-0--0-0-|
--2--2-2-2-2--2-2-2-2-2-2-2--2-2-|--2-2-2-2-2--2-2-2-2-2-2-2--2-2-|
--0--0-0-0-0--0-0-0-0-0-0-0--0-0-|--3-3-3-3-3--3-3-3-3-3-3-3--3-3-|
---------------------------------|--------------------------------|


  Dm7                                E7                              
  S   S S S E  S S S S S S E  S S    S  S S S E  S S S S S S E  S S  
--1---1-1-1-1--1-1-1-1-1-1-1--1-1-|--0--0-0-0-0--0-0-0-0-0-0-0--0-0-|
--1---1-1-1-1--1-1-1-1-1-1-1--1-1-|--3--3-3-3-3--3-3-3-3-3-3-3--3-3-|
--2---2-2-2-2--2-2-2-2-2-2-2--2-2-|--1--1-1-1-2--1-1-1-1-1-1-1--1-1-|
--0---0-0-0-0--0-0-0-0-0-0-0--0-0-|--0--0-0-0-0--0-0-0-0-0-0-0--0-0-|
----------------------------------|--2--2-2-2-2--2-2-2-2-2-2-2--2-2-|
----------------------------------|---------------------------------|


  Am                                C                              
  S  S S S E  S S S S S S E  S S    S S S S E  S S S S S S E  S S  
--0--0-0-0-0--0-0-0-0-0-0-0--0-0-|--0-0-0-0-0--0-0-0-0-0-0-0--0-0-|
--1--1-1-1-1--1-1-1-1-1-1-1--1-1-|--1-1-1-1-1--1-1-1-1-1-1-1--1-1-|
--2--2-2-2-2--2-2-2-2-2-2-2--2-2-|--0-0-0-0-0--0-0-0-0-0-0-0--0-0-|
--2--2-2-2-2--2-2-2-2-2-2-2--2-2-|--2-2-2-2-2--2-2-2-2-2-2-2--2-2-|
--0--0-0-0-0--0-0-0-0-0-0-0--0-0-|--3-3-3-3-3--3-3-3-3-3-3-3--3-3-|
---------------------------------|--------------------------------|


  Dm7                                E7                              
  S   S S S E  S S S S S S E  S S    S  S S S E  S S S S S S E  S S  
--1---1-1-1-1--1-1-1-1-1-1-1--1-1-|--0--0-0-0-0--0-0-0-0-0-0-0--0-0-|
--1---1-1-1-1--1-1-1-1-1-1-1--1-1-|--3--3-3-3-3--3-3-3-3-3-3-3--3-3-|
--2---2-2-2-2--2-2-2-2-2-2-2--2-2-|--1--1-1-1-2--1-1-1-1-1-1-1--1-1-|
--0---0-0-0-0--0-0-0-0-0-0-0--0-0-|--0--0-0-0-0--0-0-0-0-0-0-0--0-0-|
----------------------------------|--2--2-2-2-2--2-2-2-2-2-2-2--2-2-|
----------------------------------|---------------------------------|


  W                   W                   W                   W                 
-------------------|-------------------|-------------------|-------------------|
-------------------|-------------------|-------------------|-------------------|
-------------------|-------------------|-------------------|-------------------|
-------------------|-------------------|-------------------|-------------------|
-------------------|-------------------|-------------------|-------------------|
-------------------|-------------------|-------------------|-------------------|


  F              G                 C             F               
  S S S S E  S S S S S S E  S S    S S S S E  E  S S S S E  S S  
--1-1-1-1-1--1-1-3-3-3-3-3--3-3-|--3-3-3-3-3--1--1-1-1-1-1--1-1-|
--1-1-1-1-1--1-1-3-3-3-3-3--3-3-|--5-5-5-5-5--1--1-1-1-1-1--1-1-|
--2-2-2-2-2--2-2-4-4-4-4-4--4-4-|--5-5-5-5-5--2--2-2-2-2-2--2-2-|
--3-3-3-3-3--3-3-5-5-5-5-5--5-5-|--5-5-5-5-5--3--3-3-3-3-3--3-3-|
--3-3-3-3-3--3-3-5-5-5-5-5--5-5-|--3-3-3-3-3--3--3-3-3-3-3--3-3-|
--1-1-1-1-1--1-1-3-3-3-3-3--3-3-|-------------1--1-1-1-1-1--1-1-|


  Dm7                             E7                           
  E   S S E  S S E  S S E  S S    E  S S E  S S E  S S E  S S  
--1---1-1-1--1-1-1--1-1-1--1-1-|--0--0-0-0--0-0-0--0-0-0--0-0-|
--1---1-1-1--1-1-1--1-1-1--1-1-|--3--3-3-3--3-3-3--3-3-3--3-3-|
--2---2-2-2--2-2-2--2-2-2--2-2-|--1--1-1-1--1-1-1--1-1-1--1-1-|
--0---0-0-0--0-0-0--0-0-0--0-0-|--0--0-0-0--0-0-0--0-0-0--0-0-|
-------------------------------|--2--2-2-2--2-2-2--2-2-2--2-2-|
-------------------------------|------------------------------|


  Am                      F                                   
  E  S S E  S S E  S S E  E     S S S S E  S S E  S S E  S S  
--0--0-0-0--0-0-0--0-0-0--1--|--L-1-1-1-1--1-1-1--1-1-1--1-1-|
--1--1-1-1--1-1-1--1-1-1--1--|--L-1-1-1-1--1-1-1--1-1-1--1-1-|
--2--2-2-2--2-2-2--2-2-2--2--|--L-2-2-2-2--2-2-2--2-2-2--2-2-|
--2--2-2-2--2-2-2--2-2-2--3--|--L-3-3-3-3--3-3-3--3-3-3--3-3-|
--0--0-0-0--0-0-0--0-0-0--3--|--L-3-3-3-3--3-3-3--3-3-3--3-3-|
--------------------------1--|--L-1-1-1-1--1-1-1--1-1-1--1-1-|


  Am                      F                                   
  E  S S E  S S E  S S E  E     S S S S E  S S E  S S E  S S  
--0--0-0-0--0-0-0--0-0-0--1--|--L-1-1-1-1--1-1-1--1-1-1--1-1-|
--1--1-1-1--1-1-1--1-1-1--1--|--L-1-1-1-1--1-1-1--1-1-1--1-1-|
--2--2-2-2--2-2-2--2-2-2--2--|--L-2-2-2-2--2-2-2--2-2-2--2-2-|
--2--2-2-2--2-2-2--2-2-2--3--|--L-3-3-3-3--3-3-3--3-3-3--3-3-|
--0--0-0-0--0-0-0--0-0-0--3--|--L-3-3-3-3--3-3-3--3-3-3--3-3-|
--------------------------1--|--L-1-1-1-1--1-1-1--1-1-1--1-1-|


  Am                      G                              F   
  E  S S E  S S E  S S E  E     S S S S E  S S E  S S E  E   
--0--0-0-0--0-0-0--0-0-0--3--|--L-3-3-3-3--3-3-3--3-3-3--1--|
--1--1-1-1--1-1-1--1-1-1--3--|--L-3-3-3-3--3-3-3--3-3-3--1--|
--2--2-2-2--2-2-2--2-2-2--4--|--L-4-4-4-4--4-4-4--4-4-4--2--|
--2--2-2-2--2-2-2--2-2-2--5--|--L-5-5-5-5--5-5-5--5-5-5--3--|
--0--0-0-0--0-0-0--0-0-0--5--|--L-5-5-3-5--5-5-5--5-5-5--3--|
--------------------------3--|--L-3-3-3-3--3-3-3--3-3-3--1--|


                                  Am                
  S S S S E  S S E  S S E  S S    W                 
--L-1-1-1-1--1-1-1--1-1-1--1-1-|--0----------------|
--L-1-1-1-1--1-1-1--1-1-1--1-1-|--1----------------|
--L-2-2-2-2--2-2-2--2-2-2--2-2-|--2----------------|
--L-3-3-3-3--3-3-3--3-3-3--3-3-|--2----------------|
--L-3-3-3-3--3-3-3--3-3-3--3-3-|--0----------------|
--L-1-1-1-1--1-1-1--1-1-1--1-1-|-------------------|


  F#m7                              Bm7                            
  E    S S E  S S S S S S E  S S    E   S S E  S S S S S S E  S S  
--2----2-2-2--2-2-2-2-2-2-2--2-2-|--2---2-2-2--2-2-2-2-2-2-2--2-2-|
--2----2-2-2--2-2-2-2-2-2-2--2-2-|--3---3-3-3--3-3-3-3-3-3-3--3-3-|
--2----2-2-2--2-2-2-2-2-2-2--2-2-|--2---2-2-2--2-2-2-2-2-2-2--2-2-|
--2----2-2-2--2-2-2-2-2-2-2--2-2-|--4---4-4-4--4-4-4-4-4-4-4--4-4-|
--4----4-4-4--4-4-4-4-4-4-4--4-4-|--2---2-2-2--2-2-2-2-2-2-2--2-2-|
--2----2-2-2--2-2-2-2-2-2-2--2-2-|--------------------------------|


  C#m7                              D                             
  E    S S E  S S S S S S E  S S    E  S S E  S S S S S S E  S S  
--4----4-4-4--4-4-4-4-4-4-4--4-4-|--5--5-5-5--5-5-5-5-5-5-5--5-5-|
--5----5-5-5--5-5-5-5-5-5-5--5-5-|--7--7-7-7--7-7-7-7-7-7-7--7-7-|
--4----4-4-4--4-4-4-4-4-4-4--4-4-|--7--7-7-7--7-7-7-7-7-7-7--7-7-|
--6----6-6-6--6-6-6-6-6-6-6--6-6-|--7--7-7-7--7-7-7-7-7-7-7--7-7-|
--4----4-4-4--4-4-4-4-4-4-4--4-4-|--5--5-5-5--5-5-5-5-5-5-5--5-5-|
---------------------------------|-------------------------------|


  C#m7                              D                             
  E    S S E  S S S S S S E  S S    E  S S E  S S S S S S E  S S  
--4----4-4-4--4-4-4-4-4-4-4--4-4-|--5--5-5-5--5-5-5-5-5-5-5--5-5-|
--5----5-5-5--5-5-5-5-5-5-5--5-5-|--7--7-7-7--7-7-7-7-7-7-7--7-7-|
--4----4-4-4--4-4-4-4-4-4-4--4-4-|--7--7-7-7--7-7-7-7-7-7-7--7-7-|
--6----6-6-6--6-6-6-6-6-6-6--6-6-|--7--7-7-7--7-7-7-7-7-7-7--7-7-|
--4----4-4-4--4-4-4-4-4-4-4--4-4-|--5--5-5-5--5-5-5-5-5-5-5--5-5-|
---------------------------------|-------------------------------|


  C#m7                              Bm7                            
  E    S S E  S S S S S S E  S S    E   S S E  S S S S S S E  S S  
--4----4-4-4--4-4-4-4-4-4-4--4-4-|--2---2-2-2--2-2-2-2-2-2-2--2-2-|
--5----5-5-5--5-5-5-5-5-5-5--5-5-|--3---3-3-3--3-3-3-3-3-3-3--3-3-|
--4----4-4-4--4-4-4-4-4-4-4--4-4-|--2---2-2-2--2-2-2-2-2-2-2--2-2-|
--6----6-6-6--6-6-6-6-6-6-6--6-6-|--4---4-4-4--4-4-4-4-4-4-4--4-4-|
--4----4-4-4--4-4-4-4-4-4-4--4-4-|--2---2-2-2--2-2-2-2-2-2-2--2-2-|
---------------------------------|--------------------------------|


                                  A                              
  E  S S E  S S S S S S E  S S    S S S S E  S S S S S S E  S S  
--2--2-2-2--2-2-2-2-2-2-2--2-2-|--0-0-0-0-0--0-0-0-0-0-0-0--0-0-|
--3--3-3-3--3-3-3-3-3-3-3--3-3-|--2-2-2-2-2--2-2-2-2-2-2-2--2-2-|
--2--2-2-2--2-2-2-2-2-2-2--2-2-|--2-2-2-2-2--2-2-2-2-2-2-2--2-2-|
--4--4-4-4--4-4-4-4-4-4-4--4-4-|--2-2-2-2-2--2-2-2-2-2-2-2--2-2-|
--2--2-2-2--2-2-2-2-2-2-2--2-2-|--0-0-0-0-0--0-0-0-0-0-0-0--0-0-|
-------------------------------|--------------------------------|


                                   E                           
  S S S S E  S S S S S S E  S S    E  S S E  E  S S S S E  E   
--0-0-0-0-0--0-0-0-0-0-0-0--0-0-|--0--0-0-0--0--0-0-0-0-0--0--|
--2-2-2-2-2--2-2-2-2-2-2-2--2-2-|--0--0-0-0--0--0-0-0-0-0--0--|
--2-2-2-2-2--2-2-2-2-2-2-2--2-2-|--1--1-1-1--1--1-1-1-1-1--1--|
--2-2-2-2-2--2-2-2-2-2-2-2--2-2-|--2--2-2-2--2--2-2-2-2-2--2--|
--0-0-0-0-0--0-0-0-0-0-0-0--0-0-|--2--2-2-2--2--2-2-2-2-2--2--|
--------------------------------|--0--0-0-0--0--0-0-0-0-0--0--|


  E  S S E  E  S S S S E  E     E  S S E  E  S S S S E  E   
--0--0-0-0--0--0-0-0-0-0--0--|--0--0-0-0--0--0-0-0-0-0--0--|
--0--0-0-0--0--0-0-0-0-0--0--|--0--0-0-0--0--0-0-0-0-0--0--|
--1--1-1-1--1--1-1-1-1-1--1--|--1--1-1-1--1--1-1-1-1-1--1--|
--2--2-2-2--2--2-2-2-2-2--2--|--2--2-2-2--2--2-2-2-2-2--2--|
--2--2-2-2--2--2-2-2-2-2--2--|--2--2-2-2--2--2-2-2-2-2--2--|
--0--0-0-0--0--0-0-0-0-0--0--|--0--0-0-0--0--0-0-0-0-0--0--|


                                Am                      F   
  E  S S E  E  S S S S E  E     E  S S E  S S E  S S E  E   
--0--0-0-0--0--0-0-0-0-0--0--|--0--0-0-0--0-0-0--0-0-0--1--|
--3--3-3-3--3--3-3-3-3-3--3--|--1--1-1-1--1-1-1--1-1-1--1--|
--1--1-1-1--1--1-1-1-1-1--1--|--2--2-2-2--2-2-2--2-2-2--2--|
--0--0-0-0--0--0-0-0-0-0--0--|--2--2-2-2--2-2-2--2-2-2--3--|
--2--2-2-2--2--2-2-2-2-2--2--|--0--0-0-0--0-0-0--0-0-0--3--|
--0--0-0-0--0--0-0-0-0-0--0--|--------------------------1--|


                                  Am                      F   
  S S S S E  S S E  S S E  S S    E  S S E  S S E  S S E  E   
--L-1-1-1-1--1-1-1--1-1-1--1-1-|--0--0-0-0--0-0-0--0-0-0--1--|
--L-1-1-1-1--1-1-1--1-1-1--1-1-|--1--1-1-1--1-1-1--1-1-1--1--|
--L-2-2-2-2--2-2-2--2-2-2--2-2-|--2--2-2-2--2-2-2--2-2-2--2--|
--L-3-3-3-3--3-3-3--3-3-3--3-3-|--2--2-2-2--2-2-2--2-2-2--3--|
--L-3-3-3-3--3-3-3--3-3-3--3-3-|--0--0-0-0--0-0-0--0-0-0--3--|
--L-1-1-1-1--1-1-1--1-1-1--1-1-|--------------------------1--|


                                  Am                      G   
  S S S S E  S S E  S S E  S S    E  S S E  S S E  S S E  E   
--L-1-1-1-1--1-1-1--1-1-1--1-1-|--0--0-0-0--0-0-0--0-0-0--3--|
--L-1-1-1-1--1-1-1--1-1-1--1-1-|--1--1-1-1--1-1-1--1-1-1--3--|
--L-2-2-2-2--2-2-2--2-2-2--2-2-|--2--2-2-2--2-2-2--2-2-2--4--|
--L-3-3-3-3--3-3-3--3-3-3--3-3-|--2--2-2-2--2-2-2--2-2-2--5--|
--L-3-3-3-3--3-3-3--3-3-3--3-3-|--0--0-0-0--0-0-0--0-0-0--5--|
--L-1-1-1-1--1-1-1--1-1-1--1-1-|--------------------------3--|


                           F                                   
  S S S S E  S S E  S S E  E     S S S S E  S S E  S S E  S S  
--L-3-3-3-3--3-3-3--3-3-3--1--|--L-1-1-1-1--1-1-1--1-1-1--1-1-|
--L-3-3-3-3--3-3-3--3-3-3--1--|--L-1-1-1-1--1-1-1--1-1-1--1-1-|
--L-4-4-4-4--4-4-4--4-4-4--2--|--L-2-2-2-2--2-2-2--2-2-2--2-2-|
--L-5-5-5-5--5-5-5--5-5-5--3--|--L-3-3-3-3--3-3-3--3-3-3--3-3-|
--L-5-5-3-5--5-5-5--5-5-5--3--|--L-3-3-3-3--3-3-3--3-3-3--3-3-|
--L-3-3-3-3--3-3-3--3-3-3--1--|--L-1-1-1-1--1-1-1--1-1-1--1-1-|


  Am                                C                              
  S  S S S E  S S S S S S E  S S    S S S S E  S S S S S S E  S S  
--0--0-0-0-0--0-0-0-0-0-0-0--0-0-|--0-0-0-0-0--0-0-0-0-0-0-0--0-0-|
--1--1-1-1-1--1-1-1-1-1-1-1--1-1-|--1-1-1-1-1--1-1-1-1-1-1-1--1-1-|
--2--2-2-2-2--2-2-2-2-2-2-2--2-2-|--0-0-0-0-0--0-0-0-0-0-0-0--0-0-|
--2--2-2-2-2--2-2-2-2-2-2-2--2-2-|--2-2-2-2-2--2-2-2-2-2-2-2--2-2-|
--0--0-0-0-0--0-0-0-0-0-0-0--0-0-|--3-3-3-3-3--3-3-3-3-3-3-3--3-3-|
---------------------------------|--------------------------------|


  Dm7                                E7                              
  S   S S S E  S S S S S S E  S S    S  S S S E  S S S S S S E  S S  
--1---1-1-1-1--1-1-1-1-1-1-1--1-1-|--0--0-0-0-0--0-0-0-0-0-0-0--0-0-|
--1---1-1-1-1--1-1-1-1-1-1-1--1-1-|--3--3-3-3-3--3-3-3-3-3-3-3--3-3-|
--2---2-2-2-2--2-2-2-2-2-2-2--2-2-|--1--1-1-1-2--1-1-1-1-1-1-1--1-1-|
--0---0-0-0-0--0-0-0-0-0-0-0--0-0-|--0--0-0-0-0--0-0-0-0-0-0-0--0-0-|
----------------------------------|--2--2-2-2-2--2-2-2-2-2-2-2--2-2-|
----------------------------------|---------------------------------|


  Am                                C                              
  S  S S S E  S S S S S S E  S S    S S S S E  S S S S S S E  S S  
--0--0-0-0-0--0-0-0-0-0-0-0--0-0-|--0-0-0-0-0--0-0-0-0-0-0-0--0-0-|
--1--1-1-1-1--1-1-1-1-1-1-1--1-1-|--1-1-1-1-1--1-1-1-1-1-1-1--1-1-|
--2--2-2-2-2--2-2-2-2-2-2-2--2-2-|--0-0-0-0-0--0-0-0-0-0-0-0--0-0-|
--2--2-2-2-2--2-2-2-2-2-2-2--2-2-|--2-2-2-2-2--2-2-2-2-2-2-2--2-2-|
--0--0-0-0-0--0-0-0-0-0-0-0--0-0-|--3-3-3-3-3--3-3-3-3-3-3-3--3-3-|
---------------------------------|--------------------------------|


  Dm7                                E7                              
  S   S S S E  S S S S S S E  S S    S  S S S E  S S S S S S E  S S  
--1---1-1-1-1--1-1-1-1-1-1-1--1-1-|--0--0-0-0-0--0-0-0-0-0-0-0--0-0-|
--1---1-1-1-1--1-1-1-1-1-1-1--1-1-|--3--3-3-3-3--3-3-3-3-3-3-3--3-3-|
--2---2-2-2-2--2-2-2-2-2-2-2--2-2-|--1--1-1-1-2--1-1-1-1-1-1-1--1-1-|
--0---0-0-0-0--0-0-0-0-0-0-0--0-0-|--0--0-0-0-0--0-0-0-0-0-0-0--0-0-|
----------------------------------|--2--2-2-2-2--2-2-2-2-2-2-2--2-2-|
----------------------------------|---------------------------------|


  Am                      F                                   
  E  S S E  S S E  S S E  E     S S S S E  S S E  S S E  S S  
--0--0-0-0--0-0-0--0-0-0--1--|--L-1-1-1-1--1-1-1--1-1-1--1-1-|
--1--1-1-1--1-1-1--1-1-1--1--|--L-1-1-1-1--1-1-1--1-1-1--1-1-|
--2--2-2-2--2-2-2--2-2-2--2--|--L-2-2-2-2--2-2-2--2-2-2--2-2-|
--2--2-2-2--2-2-2--2-2-2--3--|--L-3-3-3-3--3-3-3--3-3-3--3-3-|
--0--0-0-0--0-0-0--0-0-0--3--|--L-3-3-3-3--3-3-3--3-3-3--3-3-|
--------------------------1--|--L-1-1-1-1--1-1-1--1-1-1--1-1-|


  Am                      F                                   
  E  S S E  S S E  S S E  E     S S S S E  S S E  S S E  S S  
--0--0-0-0--0-0-0--0-0-0--1--|--L-1-1-1-1--1-1-1--1-1-1--1-1-|
--1--1-1-1--1-1-1--1-1-1--1--|--L-1-1-1-1--1-1-1--1-1-1--1-1-|
--2--2-2-2--2-2-2--2-2-2--2--|--L-2-2-2-2--2-2-2--2-2-2--2-2-|
--2--2-2-2--2-2-2--2-2-2--3--|--L-3-3-3-3--3-3-3--3-3-3--3-3-|
--0--0-0-0--0-0-0--0-0-0--3--|--L-3-3-3-3--3-3-3--3-3-3--3-3-|
--------------------------1--|--L-1-1-1-1--1-1-1--1-1-1--1-1-|


  Am                      G                              F   
  E  S S E  S S E  S S E  E     S S S S E  S S E  S S E  E   
--0--0-0-0--0-0-0--0-0-0--3--|--L-3-3-3-3--3-3-3--3-3-3--1--|
--1--1-1-1--1-1-1--1-1-1--3--|--L-3-3-3-3--3-3-3--3-3-3--1--|
--2--2-2-2--2-2-2--2-2-2--4--|--L-4-4-4-4--4-4-4--4-4-4--2--|
--2--2-2-2--2-2-2--2-2-2--5--|--L-5-5-5-5--5-5-5--5-5-5--3--|
--0--0-0-0--0-0-0--0-0-0--5--|--L-5-5-3-5--5-5-5--5-5-5--3--|
--------------------------3--|--L-3-3-3-3--3-3-3--3-3-3--1--|


                                  Am                      F   
  S S S S E  S S E  S S E  S S    E  S S E  S S E  S S E  E   
--L-1-1-1-1--1-1-1--1-1-1--1-1-|--0--0-0-0--0-0-0--0-0-0--1--|
--L-1-1-1-1--1-1-1--1-1-1--1-1-|--1--1-1-1--1-1-1--1-1-1--1--|
--L-2-2-2-2--2-2-2--2-2-2--2-2-|--2--2-2-2--2-2-2--2-2-2--2--|
--L-3-3-3-3--3-3-3--3-3-3--3-3-|--2--2-2-2--2-2-2--2-2-2--3--|
--L-3-3-3-3--3-3-3--3-3-3--3-3-|--0--0-0-0--0-0-0--0-0-0--3--|
--L-1-1-1-1--1-1-1--1-1-1--1-1-|--------------------------1--|


                                  Am                      F   
  S S S S E  S S E  S S E  S S    E  S S E  S S E  S S E  E   
--L-1-1-1-1--1-1-1--1-1-1--1-1-|--0--0-0-0--0-0-0--0-0-0--1--|
--L-1-1-1-1--1-1-1--1-1-1--1-1-|--1--1-1-1--1-1-1--1-1-1--1--|
--L-2-2-2-2--2-2-2--2-2-2--2-2-|--2--2-2-2--2-2-2--2-2-2--2--|
--L-3-3-3-3--3-3-3--3-3-3--3-3-|--2--2-2-2--2-2-2--2-2-2--3--|
--L-3-3-3-3--3-3-3--3-3-3--3-3-|--0--0-0-0--0-0-0--0-0-0--3--|
--L-1-1-1-1--1-1-1--1-1-1--1-1-|--------------------------1--|


                                  Am                      G   
  S S S S E  S S E  S S E  S S    E  S S E  S S E  S S E  E   
--L-1-1-1-1--1-1-1--1-1-1--1-1-|--0--0-0-0--0-0-0--0-0-0--3--|
--L-1-1-1-1--1-1-1--1-1-1--1-1-|--1--1-1-1--1-1-1--1-1-1--3--|
--L-2-2-2-2--2-2-2--2-2-2--2-2-|--2--2-2-2--2-2-2--2-2-2--4--|
--L-3-3-3-3--3-3-3--3-3-3--3-3-|--2--2-2-2--2-2-2--2-2-2--5--|
--L-3-3-3-3--3-3-3--3-3-3--3-3-|--0--0-0-0--0-0-0--0-0-0--5--|
--L-1-1-1-1--1-1-1--1-1-1--1-1-|--------------------------3--|


                           F                                   
  S S S S E  S S E  S S E  E     S S S S E  S S E  S S E  S S  
--L-3-3-3-3--3-3-3--3-3-3--1--|--L-1-1-1-1--1-1-1--1-1-1--1-1-|
--L-3-3-3-3--3-3-3--3-3-3--1--|--L-1-1-1-1--1-1-1--1-1-1--1-1-|
--L-4-4-4-4--4-4-4--4-4-4--2--|--L-2-2-2-2--2-2-2--2-2-2--2-2-|
--L-5-5-5-5--5-5-5--5-5-5--3--|--L-3-3-3-3--3-3-3--3-3-3--3-3-|
--L-5-5-3-5--5-5-5--5-5-5--3--|--L-3-3-3-3--3-3-3--3-3-3--3-3-|
--L-3-3-3-3--3-3-3--3-3-3--1--|--L-1-1-1-1--1-1-1--1-1-1--1-1-|


  Am                      F                                   
  E  S S E  S S E  S S E  E     S S S S E  S S E  S S E  S S  
--0--0-0-0--0-0-0--0-0-0--1--|--L-1-1-1-1--1-1-1--1-1-1--1-1-|
--1--1-1-1--1-1-1--1-1-1--1--|--L-1-1-1-1--1-1-1--1-1-1--1-1-|
--2--2-2-2--2-2-2--2-2-2--2--|--L-2-2-2-2--2-2-2--2-2-2--2-2-|
--2--2-2-2--2-2-2--2-2-2--3--|--L-3-3-3-3--3-3-3--3-3-3--3-3-|
--0--0-0-0--0-0-0--0-0-0--3--|--L-3-3-3-3--3-3-3--3-3-3--3-3-|
--------------------------1--|--L-1-1-1-1--1-1-1--1-1-1--1-1-|


  Am                      F                                   
  E  S S E  S S E  S S E  E     S S S S E  S S E  S S E  S S  
--0--0-0-0--0-0-0--0-0-0--1--|--L-1-1-1-1--1-1-1--1-1-1--1-1-|
--1--1-1-1--1-1-1--1-1-1--1--|--L-1-1-1-1--1-1-1--1-1-1--1-1-|
--2--2-2-2--2-2-2--2-2-2--2--|--L-2-2-2-2--2-2-2--2-2-2--2-2-|
--2--2-2-2--2-2-2--2-2-2--3--|--L-3-3-3-3--3-3-3--3-3-3--3-3-|
--0--0-0-0--0-0-0--0-0-0--3--|--L-3-3-3-3--3-3-3--3-3-3--3-3-|
--------------------------1--|--L-1-1-1-1--1-1-1--1-1-1--1-1-|


  Am                      G                              F   
  E  S S E  S S E  S S E  E     S S S S E  S S E  S S E  E   
--0--0-0-0--0-0-0--0-0-0--3--|--L-3-3-3-3--3-3-3--3-3-3--1--|
--1--1-1-1--1-1-1--1-1-1--3--|--L-3-3-3-3--3-3-3--3-3-3--1--|
--2--2-2-2--2-2-2--2-2-2--4--|--L-4-4-4-4--4-4-4--4-4-4--2--|
--2--2-2-2--2-2-2--2-2-2--5--|--L-5-5-5-5--5-5-5--5-5-5--3--|
--0--0-0-0--0-0-0--0-0-0--5--|--L-5-5-3-5--5-5-5--5-5-5--3--|
--------------------------3--|--L-3-3-3-3--3-3-3--3-3-3--1--|


                                  Am                
  S S S S E  S S E  S S E  S S    W                 
--L-1-1-1-1--1-1-1--1-1-1--1-1-|--0----------------|
--L-1-1-1-1--1-1-1--1-1-1--1-1-|--1----------------|
--L-2-2-2-2--2-2-2--2-2-2--2-2-|--2----------------|
--L-3-3-3-3--3-3-3--3-3-3--3-3-|--2----------------|
--L-3-3-3-3--3-3-3--3-3-3--3-3-|--0----------------|
--L-1-1-1-1--1-1-1--1-1-1--1-1-|-------------------|


  F#m7                              Bm7                            
  E    S S E  S S S S S S E  S S    E   S S E  S S S S S S E  S S  
--2----2-2-2--2-2-2-2-2-2-2--2-2-|--2---2-2-2--2-2-2-2-2-2-2--2-2-|
--2----2-2-2--2-2-2-2-2-2-2--2-2-|--3---3-3-3--3-3-3-3-3-3-3--3-3-|
--2----2-2-2--2-2-2-2-2-2-2--2-2-|--2---2-2-2--2-2-2-2-2-2-2--2-2-|
--2----2-2-2--2-2-2-2-2-2-2--2-2-|--4---4-4-4--4-4-4-4-4-4-4--4-4-|
--4----4-4-4--4-4-4-4-4-4-4--4-4-|--2---2-2-2--2-2-2-2-2-2-2--2-2-|
--2----2-2-2--2-2-2-2-2-2-2--2-2-|--------------------------------|


  C#m7                              D                             
  E    S S E  S S S S S S E  S S    E  S S E  S S S S S S E  S S  
--4----4-4-4--4-4-4-4-4-4-4--4-4-|--5--5-5-5--5-5-5-5-5-5-5--5-5-|
--5----5-5-5--5-5-5-5-5-5-5--5-5-|--7--7-7-7--7-7-7-7-7-7-7--7-7-|
--4----4-4-4--4-4-4-4-4-4-4--4-4-|--7--7-7-7--7-7-7-7-7-7-7--7-7-|
--6----6-6-6--6-6-6-6-6-6-6--6-6-|--7--7-7-7--7-7-7-7-7-7-7--7-7-|
--4----4-4-4--4-4-4-4-4-4-4--4-4-|--5--5-5-5--5-5-5-5-5-5-5--5-5-|
---------------------------------|-------------------------------|


  C#m7                              D                             
  E    S S E  S S S S S S E  S S    E  S S E  S S S S S S E  S S  
--4----4-4-4--4-4-4-4-4-4-4--4-4-|--5--5-5-5--5-5-5-5-5-5-5--5-5-|
--5----5-5-5--5-5-5-5-5-5-5--5-5-|--7--7-7-7--7-7-7-7-7-7-7--7-7-|
--4----4-4-4--4-4-4-4-4-4-4--4-4-|--7--7-7-7--7-7-7-7-7-7-7--7-7-|
--6----6-6-6--6-6-6-6-6-6-6--6-6-|--7--7-7-7--7-7-7-7-7-7-7--7-7-|
--4----4-4-4--4-4-4-4-4-4-4--4-4-|--5--5-5-5--5-5-5-5-5-5-5--5-5-|
---------------------------------|-------------------------------|


  C#m7                              Bm7                            
  E    S S E  S S S S S S E  S S    E   S S E  S S S S S S E  S S  
--4----4-4-4--4-4-4-4-4-4-4--4-4-|--2---2-2-2--2-2-2-2-2-2-2--2-2-|
--5----5-5-5--5-5-5-5-5-5-5--5-5-|--3---3-3-3--3-3-3-3-3-3-3--3-3-|
--4----4-4-4--4-4-4-4-4-4-4--4-4-|--2---2-2-2--2-2-2-2-2-2-2--2-2-|
--6----6-6-6--6-6-6-6-6-6-6--6-6-|--4---4-4-4--4-4-4-4-4-4-4--4-4-|
--4----4-4-4--4-4-4-4-4-4-4--4-4-|--2---2-2-2--2-2-2-2-2-2-2--2-2-|
---------------------------------|--------------------------------|


                                  A                              
  E  S S E  S S S S S S E  S S    S S S S E  S S S S S S E  S S  
--2--2-2-2--2-2-2-2-2-2-2--2-2-|--0-0-0-0-0--0-0-0-0-0-0-0--0-0-|
--3--3-3-3--3-3-3-3-3-3-3--3-3-|--2-2-2-2-2--2-2-2-2-2-2-2--2-2-|
--2--2-2-2--2-2-2-2-2-2-2--2-2-|--2-2-2-2-2--2-2-2-2-2-2-2--2-2-|
--4--4-4-4--4-4-4-4-4-4-4--4-4-|--2-2-2-2-2--2-2-2-2-2-2-2--2-2-|
--2--2-2-2--2-2-2-2-2-2-2--2-2-|--0-0-0-0-0--0-0-0-0-0-0-0--0-0-|
-------------------------------|--------------------------------|


                                   E                           
  S S S S E  S S S S S S E  S S    E  S S E  E  S S S S E  E   
--0-0-0-0-0--0-0-0-0-0-0-0--0-0-|--0--0-0-0--0--0-0-0-0-0--0--|
--2-2-2-2-2--2-2-2-2-2-2-2--2-2-|--0--0-0-0--0--0-0-0-0-0--0--|
--2-2-2-2-2--2-2-2-2-2-2-2--2-2-|--1--1-1-1--1--1-1-1-1-1--1--|
--2-2-2-2-2--2-2-2-2-2-2-2--2-2-|--2--2-2-2--2--2-2-2-2-2--2--|
--0-0-0-0-0--0-0-0-0-0-0-0--0-0-|--2--2-2-2--2--2-2-2-2-2--2--|
--------------------------------|--0--0-0-0--0--0-0-0-0-0--0--|


  E  S S E  E  S S S S E  E     E  S S E  E  S S S S E  E   
--0--0-0-0--0--0-0-0-0-0--0--|--0--0-0-0--0--0-0-0-0-0--0--|
--0--0-0-0--0--0-0-0-0-0--0--|--0--0-0-0--0--0-0-0-0-0--0--|
--1--1-1-1--1--1-1-1-1-1--1--|--1--1-1-1--1--1-1-1-1-1--1--|
--2--2-2-2--2--2-2-2-2-2--2--|--2--2-2-2--2--2-2-2-2-2--2--|
--2--2-2-2--2--2-2-2-2-2--2--|--2--2-2-2--2--2-2-2-2-2--2--|
--0--0-0-0--0--0-0-0-0-0--0--|--0--0-0-0--0--0-0-0-0-0--0--|


                                Am                      F   
  E  S S E  E  S S S S E  E     E  S S E  S S E  S S E  E   
--0--0-0-0--0--0-0-0-0-0--0--|--0--0-0-0--0-0-0--0-0-0--1--|
--3--3-3-3--3--3-3-3-3-3--3--|--1--1-1-1--1-1-1--1-1-1--1--|
--1--1-1-1--1--1-1-1-1-1--1--|--2--2-2-2--2-2-2--2-2-2--2--|
--0--0-0-0--0--0-0-0-0-0--0--|--2--2-2-2--2-2-2--2-2-2--3--|
--2--2-2-2--2--2-2-2-2-2--2--|--0--0-0-0--0-0-0--0-0-0--3--|
--0--0-0-0--0--0-0-0-0-0--0--|--------------------------1--|


                                  Am                      F   
  S S S S E  S S E  S S E  S S    E  S S E  S S E  S S E  E   
--L-1-1-1-1--1-1-1--1-1-1--1-1-|--0--0-0-0--0-0-0--0-0-0--1--|
--L-1-1-1-1--1-1-1--1-1-1--1-1-|--1--1-1-1--1-1-1--1-1-1--1--|
--L-2-2-2-2--2-2-2--2-2-2--2-2-|--2--2-2-2--2-2-2--2-2-2--2--|
--L-3-3-3-3--3-3-3--3-3-3--3-3-|--2--2-2-2--2-2-2--2-2-2--3--|
--L-3-3-3-3--3-3-3--3-3-3--3-3-|--0--0-0-0--0-0-0--0-0-0--3--|
--L-1-1-1-1--1-1-1--1-1-1--1-1-|--------------------------1--|


                                  Am                      G   
  S S S S E  S S E  S S E  S S    E  S S E  S S E  S S E  E   
--L-1-1-1-1--1-1-1--1-1-1--1-1-|--0--0-0-0--0-0-0--0-0-0--3--|
--L-1-1-1-1--1-1-1--1-1-1--1-1-|--1--1-1-1--1-1-1--1-1-1--3--|
--L-2-2-2-2--2-2-2--2-2-2--2-2-|--2--2-2-2--2-2-2--2-2-2--4--|
--L-3-3-3-3--3-3-3--3-3-3--3-3-|--2--2-2-2--2-2-2--2-2-2--5--|
--L-3-3-3-3--3-3-3--3-3-3--3-3-|--0--0-0-0--0-0-0--0-0-0--5--|
--L-1-1-1-1--1-1-1--1-1-1--1-1-|--------------------------3--|


                           F                                   
  S S S S E  S S E  S S E  E     S S S S E  S S E  S S E  S S  
--L-3-3-3-3--3-3-3--3-3-3--1--|--L-1-1-1-1--1-1-1--1-1-1--1-1-|
--L-3-3-3-3--3-3-3--3-3-3--1--|--L-1-1-1-1--1-1-1--1-1-1--1-1-|
--L-4-4-4-4--4-4-4--4-4-4--2--|--L-2-2-2-2--2-2-2--2-2-2--2-2-|
--L-5-5-5-5--5-5-5--5-5-5--3--|--L-3-3-3-3--3-3-3--3-3-3--3-3-|
--L-5-5-3-5--5-5-5--5-5-5--3--|--L-3-3-3-3--3-3-3--3-3-3--3-3-|
--L-3-3-3-3--3-3-3--3-3-3--1--|--L-1-1-1-1--1-1-1--1-1-1--1-1-|


  W                   W                   W                   W                 
--0----------------|--L----------------|--L----------------|--L----------------|
--1----------------|--L----------------|--L----------------|--L----------------|
--2----------------|--L----------------|--L----------------|--L----------------|
--2----------------|--L----------------|--L----------------|--L----------------|
--0----------------|--L----------------|--L----------------|--L----------------|
-------------------|-------------------|-------------------|-------------------|


-------------------||
-------------------||
-------------------||
-------------------||
-------------------||
-------------------||








(Roger Fisher)


     This track is just to make playback sound correct                
     |--------------------------3-------------------------|           
     E                                                 E  E  S  S E   
E||------------------------------------------------------------------|
B||-------------------------------------------------------3--1p-0-L--|
G||--2s------------------------------------------------4-----2p-0-0--|
D||------------------------------------------------------------------|
A||------------------------------------------------------------------|
E||------------------------------------------------------------------|


  |--3-|            |--3-|  |--3-|      |--3-|  |--3-|  |--3-|  |--3--|   
  Q    E  S  S  S S Q    E  Q    E      Q    E  Q    E  Q    E  Q     E   
-------------------------------------|-----------------------------------|
----------3p-1p-0---1----------------|-----------------------------------|
------------------2------2-----------|-------0----------4-------5S----0--|
---------------------------------2S--|--4---------------4-------5S----0--|
--0----0------------0-------0--------|----------0----2-------0-----------|
-------------------------------------|-----------------------------------|


  |--3-|            |--3-|  |--3-|      |--3-|  |--3-|  |--3--|  |--3-|   
  Q    E  S  S  S S Q    E  Q    E      Q    E  Q    E  E  E  E  Q    E   
-------------------------------------|-----------------------------------|
----------3p-1p-0---1----------------|-----------------------------------|
------------------2------2-----------|-------0----------------2----------|
---------------------------------2S--|--4------------0-----2-------------|
--0----0------------0-------0--------|----------0-------3--------2-------|
-------------------------------------|--------------------------------0--|


   |--3-|  |--3-|  |---3--|  |---3---|     |--3-|            |--3-|  |--3-|    
   Q    E  Q    E  E   E  E  E   E   E     Q    E  S  S  S S Q    E  Q    E    
----------------------------------------|-------------------------------------|
----------------------------------------|----------3p-1p-0---1----------------|
--/4-------2-------0h--1-----4p--2p--0--|--2----2----------2------2-----------|
-----------------------------0----------|---------------------------------2S--|
--/5-------4-------2---L-----x----------|--0----0------------0-------0--------|
--------0-------0---------0--3----------|-------------------------------------|


  |--3-|  |--3-|  |--3-|  |--3--|     |--3-|            |--3-|  |--3-|    
  Q    E  Q    E  Q    E  Q     E     Q    E  S  S  S S Q    E  Q    E    
-----------------------------------|-------------------------------------|
-----------------------------------|----------3p-1p-0---1----------------|
-------0----------4-------5S----0--|------------------2------2-----------|
--4---------------4-------5S----0--|--------------------0------------2S--|
----------0----0-------0-----------|--0----0--------------------0--------|
-----------------------------------|-------------------------------------|


                                                            NH    
  |--3-|  |--3-|  |--3--|  |--3--|             |------3-----|     
  Q    E  Q    E  E  E  E  E  E  E     S S E   Q    Q       Q     
------------------------------------|----------------------------|
---------------------------3--------|--5-3----10----0----<>12----|
-------0----------4--------4-----4--|------4---7----0----<>12----|
--4------------------4--------------|---------------0----<>12----|
----------0----0--0-----0-----0-----|----------0-----------------|
------------------------------------|----------------------------|


  |--3-|            |--3-|  |--3-|      |--3-|  |--3-|  |--3-|  |--3--|   
  Q    E  S  S  S S Q    E  Q    E      Q    E  Q    E  Q    E  Q     E   
-------------------------------------|-----------------------------------|
----------3p-1p-0---1----------------|-----------------------------------|
------------------2------2-----------|-------0----------4-------5S----0--|
---------------------------------2S--|--4---------------4-------5S----0--|
--0----0------------0-------0--------|----------0----0-------0-----------|
-------------------------------------|-----------------------------------|


  |--3-|            |--3-|  |--3-|      |--3-|  |--3-|  |--3--|  |--3--|   
  Q    E  S  S  S S Q    E  Q    E      Q    E  Q    E  E  E  E  E  E  E   
-------------------------------------|------------------------------------|
----------3p-1p-0---1----------------|------------------------------------|
------------------2------2-----------|-------0----------------------------|
---------------------------------2S--|--4------------0--------4--------2--|
--0----0------------0-------0--------|----------0----------5--------3-----|
-------------------------------------|------------------5--------3--------|


  |--3-|            |--3-|  |--3-|                                           
  Q    E  S  S  S S Q    E  Q    E     W                   W                 
------------------------------------|-------------------|-------------------|
----------3p-1p-0---1---------------|-------------------|-------------------|
------------------2------2----------|-------------------|-------------------|
---------------------------------0--|-------------------|-------------------|
--0----0------------0-------0-------|-------------------|-------------------|
------------------------------------|-------------------|-------------------|


  W                Q       W                   W                 
------------------------|-------------------|-------------------|
------------------------|-------------------|-------------------|
------------------------|-------------------|-------------------|
------------------------|-------------------|-------------------|
------------------------|-------------------|-------------------|
------------------------|-------------------|-------------------|


  W                   W                   W                   W                 
-------------------|-------------------|-------------------|-------------------|
-------------------|-------------------|-------------------|-------------------|
-------------------|-------------------|-------------------|-------------------|
-------------------|-------------------|-------------------|-------------------|
-------------------|-------------------|-------------------|-------------------|
-------------------|-------------------|-------------------|-------------------|


  Q    E  E  E  E  E  E     H.           Q       Q    E  E  E  E  E  E   
-------------------------|--------------------|-------------------------|
-------------------------|--------------------|-------------------------|
-------------------------|--------------------|-------------------------|
-------2--0--------------|--------------------|-------2--0--------------|
--0----------3--2--0-----|--------------------|--0----------3--2--0-----|
----------------------1--|--L------------3----|----------------------1--|


  H.           Q       Q    E  E  E  E  E  E     Q    E  E  E  E  E  E   
--------------------|-------------------------|-------------------------|
--------------------|-------------------------|-------------------------|
--------------------|-------------------------|-------------------------|
--------------------|-------2--0--------------|-------2--0--------------|
--------------------|--0----------3--2--0-----|-------------3--2--0-----|
--L------------3----|----------------------3--|--L-------------------1--|


  Q    E  E  E  E  Q       W                   W                 
------------------------|-------------------|-------------------|
------------------------|-------------------|-------------------|
------------------------|-------------------|-------------------|
-------2--0-------------|-------------------|-------------------|
-------------3--2-------|--0----------------|-------------------|
--L----------------3----|-------------------|-------------------|


  W                   W                   W                   W                 
-------------------|-------------------|-------------------|-------------------|
-------------------|-------------------|-------------------|-------------------|
-------------------|-------------------|-------------------|-------------------|
-------------------|-------------------|-------------------|-------------------|
-------------------|-------------------|-------------------|-------------------|
-------------------|-------------------|-------------------|-------------------|


  W                   W                   W                 
-------------------|-------------------|-------------------|
-------------------|-------------------|-------------------|
-------------------|-------------------|-------------------|
-------------------|-------------------|-------------------|
-------------------|-------------------|-------------------|
-------------------|-------------------|-------------------|


  E   S   S  S  S   S  S  S   S  S  S   S  S  E      W                 
-----17p-14--------------17p-14--------------14\--|-------------------|
---------------17p-15--------------17p-15-15-15\--|-------------------|
------------14--------14--------14--------14------|-------------------|
--------------------------------------------------|-------------------|
--------------------------------------------------|-------------------|
--------------------------------------------------|-------------------|


  E   S   S  S  S   S  S  S   S  S  S   S  S  E    
-----17p-14--------------17p-14--------------14\--|
---------------17p-15--------------17p-15-15-15\--|
------------14--------14--------14--------14------|
--------------------------------------------------|
--------------------------------------------------|
--------------------------------------------------|


  Q     E  Q     S  S  E   E       E   E   E   Q.     Q       W                 
--------8-------10-10-10\-----|---------------17-----------|-------------------|
-------10-------12-12-12\-----|-------15--17---------------|-------------------|
-------10-------12-12-12\-----|--/14-----------------------|-------------------|
------------------------------|----------------------------|-------------------|
------------------------------|----------------------------|-------------------|
------------------------------|----------------------------|-------------------|


    E   E   Q     E   Q     E     Q    E  E  E  E  E  E     H.           Q     
-------16--------16------------|-------------------------|--------------------|
--/15------15--------15\-------|-------------------------|--------------------|
-------------------------------|-------------------------|--------------------|
-------------------------------|-------2--0--------------|--------------------|
-------------------------------|--0----------3--2--0-----|--------------------|
-------------------------------|----------------------1--|--L------------3----|


  Q    E  E  E  E  E  E     H.           Q       Q    E  E  E  E  E  E   
-------------------------|--------------------|-------------------------|
-------------------------|--------------------|-------------------------|
-------------------------|--------------------|-------------------------|
-------2--0--------------|--------------------|-------2--0--------------|
--0----------3--2--0-----|--------------------|--0----------3--2--0-----|
----------------------1--|--L------------3----|----------------------3--|


  Q    E  E  E  E  E  E     Q    E  E  E  E  Q       Q     E  Q    S S  E   E   
-------------------------|------------------------|----------------------------|
-------------------------|------------------------|-------13-------------------|
-------------------------|------------------------|------------------x-14\-----|
-------2--0--------------|-------2--0-------------|------------------x-14\-----|
-------------3--2--0-----|-------------3--2-------|--0----------------------L--|
--L-------------------1--|--L----------------3----|----------------------------|


  Q     E  Q    S S  E   E     Q     E  Q    S S  E   E   
----------------------------|----------------------------|
-------13-------------------|-------13-------------------|
------------------x-12\-----|------------------x-14\-----|
------------------x-14\-----|------------------x-12\-----|
----------------------------|----------------------------|
----------------------------|----------------------------|


  Q     E  Q    S S  E   E     Q     E  Q    S S  E   E   
-------12-------------------|-------12-------------------|
----------------------------|----------------------------|
------------------x-13\-----|------------------x-13\-----|
------------------x-14\-----|------------------x-14\-----|
----------------------------|----------------------------|
----------------------------|----------------------------|


  Q     E  Q    S S  E   E     Q     E  Q    S S  E   E   
----------------------------|----------------------------|
-------13-------------------|-------13-------------------|
------------------x-14\-----|------------------x-12\-----|
------------------x-14\-----|------------------x-14\-----|
----------------------------|----------------------------|
----------------------------|----------------------------|


  Q     E  Q    S S  E   E     W                 
----------------------------|-------------------|
-------13-------------------|-------------------|
------------------x-14\-----|-------------------|
------------------x-12\-----|-------------------|
----------------------------|-------------------|
----------------------------|-------------------|


  E   S   S  S  S   S  S  S   S  S  S   S  S  E      W                 
-----17p-14--------------17p-14--------------14\--|-------------------|
---------------17p-15--------------17p-15-15-15\--|-------------------|
------------14--------14--------14--------14------|-------------------|
--------------------------------------------------|-------------------|
--------------------------------------------------|-------------------|
--------------------------------------------------|-------------------|


  E   S   S  S  S   S  S  S   S  S  S   S  S  E    
-----17p-14--------------17p-14--------------14\--|
---------------17p-15--------------17p-15-15-15\--|
------------14--------14--------14--------14------|
--------------------------------------------------|
--------------------------------------------------|
--------------------------------------------------|


  Q     E  Q     S  S  E   E       E   E   E   Q.     Q       W                 
--------8-------10-10-10\-----|---------------17-----------|-------------------|
-------10-------12-12-12\-----|-------15--17---------------|-------------------|
-------10-------12-12-12\-----|--/14-----------------------|-------------------|
------------------------------|----------------------------|-------------------|
------------------------------|----------------------------|-------------------|
------------------------------|----------------------------|-------------------|


    E   E   Q     E   Q     E     Q    E  E  E  E  E  E     H.           Q     
-------16--------16------------|-------------------------|--------------------|
--/15------15--------15\-------|-------------------------|--------------------|
-------------------------------|-------------------------|--------------------|
-------------------------------|-------2--0--------------|--------------------|
-------------------------------|--0----------3--2--0-----|--------------------|
-------------------------------|----------------------1--|--L------------3----|


  Q    E  E  E  E  E  E     H.           Q       Q    E  E  E  E  E  E   
-------------------------|--------------------|-------------------------|
-------------------------|--------------------|-------------------------|
-------------------------|--------------------|-------------------------|
-------2--0--------------|--------------------|-------2--0--------------|
--0----------3--2--0-----|--------------------|--0----------3--2--0-----|
----------------------1--|--L------------3----|----------------------3--|


  Q    E  E  E  E  E  E     Q    E  E  E  E  Q       W                 
-------------------------|------------------------|-------------------|
-------------------------|------------------------|-------------------|
-------------------------|------------------------|-------------------|
-------2--0--------------|-------2--0-------------|-------------------|
-------------3--2--0-----|-------------3--2-------|--0----------------|
--L-------------------1--|--L----------------3----|-------------------|


  Q    E  Q    S S E   E     Q    E  Q    S S E   E   
-------2---------2-2\-----|-------2---------2-2\-----|
-------2---------2-2\-----|-------3---------3-3\-----|
-------2-------2-2-2\-----|-------2-------2-2-2\-----|
--------------------------|--------------------------|
--------------------------|--------------------------|
--------------------------|--------------------------|


  Q    E  Q    S S E   E     Q    E  Q    S S E   E   
-------4---------4-4\-----|-------5---------5-5\-----|
-------5---------5-5\-----|-------7---------7-7\-----|
-------4-------4-4-4\-----|-------7-------7-7-7\-----|
--------------------------|--------------------------|
--------------------------|--------------------------|
--------------------------|--------------------------|


  Q    E  Q    S S E   E     Q    E  Q    S S E   E   
-------9---------9-9\-----|-------5---------5-5\-----|
-------9---------9-9\-----|-------7---------7-7\-----|
-------9-------9-9-9\-----|-------7-------7-7-7\-----|
--------------------------|--------------------------|
--------------------------|--------------------------|
--------------------------|--------------------------|


  Q    E  Q    S S E   E     Q    E  Q    S S E   E   
-------9---------9-9\-----|-------7---------7-7\-----|
-------9---------9-9\-----|-------7---------7-7\-----|
-------9-------9-9-9\-----|-------7-------7-7-7\-----|
--------------------------|--------------------------|
--------------------------|--------------------------|
--------------------------|--------------------------|


  Q    E  Q    S S E   E   
-------7---------7-7\-----|
-------7---------7-7\-----|
-------7-------7-7-7\-----|
--------------------------|
--------------------------|
--------------------------|


  E   T   T   S  S  S   S  S  S  S  S  S   S  S  T   T   S  
-----------------------------------------------------------|
-----14h-15p-14----17p-14----19-14----17p-14----14h-15p-14-|
----------------14--------14-------14--------14------------|
-----------------------------------------------------------|
-----------------------------------------------------------|
-----------------------------------------------------------|


   S  S   S  S  S  S  S  S  S  S  T   T   S  E   E     W                 
----------------------------------------------------|-------------------|
-----17p-14----19-14----17-14----14h-15p-14-14\-----|-------------------|
--14--------14-------14-------14------------14\-----|-------------------|
----------------------------------------------------|-------------------|
----------------------------------------------------|-------------------|
----------------------------------------------------|-------------------|


  W                   W                   H        Q    E   E    
-------------------|-------------------|------------------------|
-------------------|-------------------|------------------------|
-------------------|-------------------|------------------------|
-------------------|-------------------|------------------------|
-------------------|-------------------|-------------------(3)--|
-------------------|-------------------|------------------------|


  Q    E  E  E  E  E  E     H.           Q       Q    E  E  E  E  E  E   
-------------------------|--------------------|-------------------------|
-------------------------|--------------------|-------------------------|
-------------------------|--------------------|-------------------------|
-------2--0--------------|--------------------|-------2--0--------------|
--0----------3--2--0-----|--------------------|--0----------3--2--0-----|
----------------------1--|--L------------3----|----------------------1--|


  H.           Q       Q    E  E  E  E  E  E     Q    E  E  E  E  E  E   
--------------------|-------------------------|-------------------------|
--------------------|-------------------------|-------------------------|
--------------------|-------------------------|-------------------------|
--------------------|-------2--0--------------|-------2--0--------------|
--------------------|--0----------3--2--0-----|-------------3--2--0-----|
--L------------3----|----------------------3--|--L-------------------1--|


  Q    E  E  E  E  Q       Q     E  Q    S S  E   E   
------------------------|----------------------------|
------------------------|-------13-------------------|
------------------------|------------------x-14\-----|
-------2--0-------------|------------------x-14\-----|
-------------3--2-------|--0----------------------L--|
--L----------------3----|----------------------------|


  Q     E  Q    S S  E   E     Q     E  Q    S S  E   E   
----------------------------|----------------------------|
-------13-------------------|-------13-------------------|
------------------x-12\-----|------------------x-14\-----|
------------------x-14\-----|------------------x-12\-----|
----------------------------|----------------------------|
----------------------------|----------------------------|


  Q     E  Q    S S  E   E     Q     E  Q    S S  E   E   
-------12-------------------|-------12-------------------|
----------------------------|----------------------------|
------------------x-13\-----|------------------x-13\-----|
------------------x-14\-----|------------------x-14\-----|
----------------------------|----------------------------|
----------------------------|----------------------------|


  Q     E  Q    S S  E   E     Q     E  Q    S S  E   E   
----------------------------|----------------------------|
-------13-------------------|-------13-------------------|
------------------x-14\-----|------------------x-12\-----|
------------------x-14\-----|------------------x-14\-----|
----------------------------|----------------------------|
----------------------------|----------------------------|


  Q     E  Q    S S  E   E     Q    E  E  E  E  E  E     H.           Q     
----------------------------|-------------------------|--------------------|
-------13-------------------|-------------------------|--------------------|
------------------x-14\-----|-------------------------|--------------------|
------------------x-12\-----|-------2--0--------------|--------------------|
----------------------------|--0----------3--2--0-----|--------------------|
----------------------------|----------------------1--|--L------------3----|


  Q    E  E  E  E  E  E     H.           Q       Q    E  E  E  E  E  E   
-------------------------|--------------------|-------------------------|
-------------------------|--------------------|-------------------------|
-------------------------|--------------------|-------------------------|
-------2--0--------------|--------------------|-------2--0--------------|
--0----------3--2--0-----|--------------------|--0----------3--2--0-----|
----------------------1--|--L------------3----|----------------------3--|


  Q    E  E  E  E  E  E     Q    E  E  E  E  Q       Q    E  E  E  E  E  E   
-------------------------|------------------------|-------------------------|
-------------------------|------------------------|-------------------------|
-------------------------|------------------------|-------------------------|
-------2--0--------------|-------2--0-------------|-------2--0--------------|
-------------3--2--0-----|-------------3--2-------|--0----------3--2--0-----|
--L-------------------1--|--L----------------3----|----------------------1--|


  H.           Q       Q    E  E  E  E  E  E     H.           Q     
--------------------|-------------------------|--------------------|
--------------------|-------------------------|--------------------|
--------------------|-------------------------|--------------------|
--------------------|-------2--0--------------|--------------------|
--------------------|--0----------3--2--0-----|--------------------|
--L------------3----|----------------------1--|--L------------3----|


  Q    E  E  E  E  E  E     Q    E  E  E  E  E  E     Q    E  E  E  E  Q     
-------------------------|-------------------------|------------------------|
-------------------------|-------------------------|------------------------|
-------------------------|-------------------------|------------------------|
-------2--0--------------|-------2--0--------------|-------2--0-------------|
--0----------3--2--0-----|-------------3--2--0-----|-------------3--2-------|
----------------------3--|--L-------------------1--|--L----------------3----|


  Q    E  E  E  E  E  E     H.           Q       Q    E  E  E  E  E  E   
-------------------------|--------------------|-------------------------|
-------------------------|--------------------|-------------------------|
-------------------------|--------------------|-------------------------|
-------2--0--------------|--------------------|-------2--0--------------|
--0----------3--2--0-----|--------------------|--0----------3--2--0-----|
----------------------1--|--L------------3----|----------------------1--|


  H.           Q       Q    E  E  E  E  E  E     Q    E  E  E  E  E  E   
--------------------|-------------------------|-------------------------|
--------------------|-------------------------|-------------------------|
--------------------|-------------------------|-------------------------|
--------------------|-------2--0--------------|-------2--0--------------|
--------------------|--0----------3--2--0-----|-------------3--2--0-----|
--L------------3----|----------------------3--|--L-------------------1--|


  Q    E  E  E  E  Q       W                 
------------------------|-------------------|
------------------------|-------------------|
------------------------|-------------------|
-------2--0-------------|-------------------|
-------------3--2-------|--0----------------|
--L----------------3----|-------------------|


                     grace notes are slide-ups                        
  Q    E  E  E  E    E                       E      W                 
-------------------------------------------------|-------------------|
-------------------------------------------------|-------------------|
-------------------------------------------------|-------------------|
-------------------------------------------------|-------------------|
-------------2--4--4g7p----------------------5~--|--L----------------|
--2----4--5--------------------------------------|-------------------|


                                                                       slide    
  Q    E  E  E  E    E   E      W                   Q    E  E  E  E    E   E    
-----------------------------|-------------------|-----------------------------|
-----------------------------|-------------------|-----------------------------|
-----------------------------|-------------------|-------------6--7--7g9p--7~--|
-------------4--6--6g9p--7~--|--L----------------|--6----7--9------------------|
--4----5--7------------------|-------------------|-----------------------------|
-----------------------------|-------------------|-----------------------------|


                                          slide     
  W                   Q    E  E  E  E     E    E    
-------------------|-------------------------------|
-------------------|-------------7--9--9g12p--10~--|
--L----------------|--6----7--9--------------------|
-------------------|-------------------------------|
-------------------|-------------------------------|
-------------------|-------------------------------|


  Q    E   E    E   E  E   E      Q     E   E    E   E  E   E   
-------------------10--L------|---------------------10--L------|
--L----L--10br--L----------L--|--10~----L--10br--L----------L--|
------------------------------|--------------------------------|
------------------------------|--------------------------------|
------------------------------|--------------------------------|
------------------------------|--------------------------------|


  E   T   T   S  S  S   S  S  S  S  S  S   S  S  T   T   S  
-----------------------------------------------------------|
-----14h-15p-14----17p-14----19-14----17p-14----14h-15p-14-|
----------------14--------14-------14--------14------------|
-----------------------------------------------------------|
-----------------------------------------------------------|
-----------------------------------------------------------|


   S  S   S  S  S  S  S  S  S  S  T   T   S  E   E     W                 
----------------------------------------------------|-------------------|
-----17p-14----19-14----17-14----14h-15p-14-14\-----|-------------------|
--14--------14-------14-------14------------14\-----|-------------------|
----------------------------------------------------|-------------------|
----------------------------------------------------|-------------------|
----------------------------------------------------|-------------------|


  W                   W                   H        Q    E   E    
-------------------|-------------------|------------------------|
-------------------|-------------------|------------------------|
-------------------|-------------------|------------------------|
-------------------|-------------------|------------------------|
-------------------|-------------------|-------------------(3)--|
-------------------|-------------------|------------------------|


  Q    E  E  E  E  E  E     H.           Q       Q    E  E  E  E  E  E   
-------------------------|--------------------|-------------------------|
-------------------------|--------------------|-------------------------|
-------------------------|--------------------|-------------------------|
-------2--0--------------|--------------------|-------2--0--------------|
--0----------3--2--0-----|--------------------|--0----------3--2--0-----|
----------------------1--|--L------------3----|----------------------1--|


  H.           Q       Q    E  E  E  E  E  E     Q    E  E  E  E  E  E   
--------------------|-------------------------|-------------------------|
--------------------|-------------------------|-------------------------|
--------------------|-------------------------|-------------------------|
--------------------|-------2--0--------------|-------2--0--------------|
--------------------|--0----------3--2--0-----|-------------3--2--0-----|
--L------------3----|----------------------3--|--L-------------------1--|


                           Very slow flanger or phaser                      
  Q    E  E  E  E  Q       W                              W                 
------------------------|------------------------------|-------------------|
------------------------|------------------------------|-------------------|
------------------------|------------------------------|-------------------|
-------2--0-------------|------------------------------|-------------------|
-------------3--2-------|--0---------------------------|--L----------------|
--L----------------3----|------------------------------|-------------------|


  W                   W                   W                  
-------------------|-------------------|-------------------||
-------------------|-------------------|-------------------||
-------------------|-------------------|-------------------||
-------------------|-------------------|-------------------||
--L----------------|--L----------------|-------------------||
-------------------|-------------------|-------------------||








(Roger Fisher Solo)


E||-------|-------|-------|-------|-------|-------|-------|-------|-------|
B||-------|-------|-------|-------|-------|-------|-------|-------|-------|
G||-------|-------|-------|-------|-------|-------|-------|-------|-------|
D||-------|-------|-------|-------|-------|-------|-------|-------|-------|
A||-------|-------|-------|-------|-------|-------|-------|-------|-------|
E||-------|-------|-------|-------|-------|-------|-------|-------|-------|


-------|-------|-------|-------|-------|-------|-------|-------|-------|-------|
-------|-------|-------|-------|-------|-------|-------|-------|-------|-------|
-------|-------|-------|-------|-------|-------|-------|-------|-------|-------|
-------|-------|-------|-------|-------|-------|-------|-------|-------|-------|
-------|-------|-------|-------|-------|-------|-------|-------|-------|-------|
-------|-------|-------|-------|-------|-------|-------|-------|-------|-------|


-------|-------|-------|-------|-------|-------|-------|-------|-------|-------|
-------|-------|-------|-------|-------|-------|-------|-------|-------|-------|
-------|-------|-------|-------|-------|-------|-------|-------|-------|-------|
-------|-------|-------|-------|-------|-------|-------|-------|-------|-------|
-------|-------|-------|-------|-------|-------|-------|-------|-------|-------|
-------|-------|-------|-------|-------|-------|-------|-------|-------|-------|


-------|-------|-------|-------|-------|-------|-------|-------|-------|-------|
-------|-------|-------|-------|-------|-------|-------|-------|-------|-------|
-------|-------|-------|-------|-------|-------|-------|-------|-------|-------|
-------|-------|-------|-------|-------|-------|-------|-------|-------|-------|
-------|-------|-------|-------|-------|-------|-------|-------|-------|-------|
-------|-------|-------|-------|-------|-------|-------|-------|-------|-------|


           Q    E   Q    E   Q       W                 
-------|--12-------12-------14----|--L----------------|
-------|--13-------13-------15----|--L----------------|
-------|--14-------14-------14----|--L----------------|
-------|--------------------------|-------------------|
-------|--------------------------|-------------------|
-------|--------------------------|-------------------|


   Q    E   Q    E   Q       W                                                 
--12-------12-------14----|--L----------------|-------|-------|-------|-------|
--13-------13-------15----|--L----------------|-------|-------|-------|-------|
--14-------14-------14----|--L----------------|-------|-------|-------|-------|
--------------------------|-------------------|-------|-------|-------|-------|
--------------------------|-------------------|-------|-------|-------|-------|
--------------------------|-------------------|-------|-------|-------|-------|


-------|-------|-------|-------|-------|-------|-------|-------------------|
-------|-------|-------|-------|-------|-------|-------|-------------------|
-------|-------|-------|-------|-------|-------|-------|-------------------|
-------|-------|-------|-------|-------|-------|-------|-------------------|
-------|-------|-------|-------|-------|-------|-------|-------------------|
-------|-------|-------|-------|-------|-------|-------|-------------------|


-------|-------|-------|-------|-------|-------|-------|
-------|-------|-------|-------|-------|-------|-------|
-------|-------|-------|-------|-------|-------|-------|
-------|-------|-------|-------|-------|-------|-------|
-------|-------|-------|-------|-------|-------|-------|
-------|-------|-------|-------|-------|-------|-------|


   Q    E   Q    E   Q       W                    Q    E   Q    E   Q     
--12-------12-------14----|--L----------------|--12-------12-------14----|
--13-------13-------15----|--L----------------|--13-------13-------15----|
--14-------14-------14----|--L----------------|--14-------14-------14----|
--------------------------|-------------------|--------------------------|
--------------------------|-------------------|--------------------------|
--------------------------|-------------------|--------------------------|


  W                                                                         
--L----------------|-------|-------|-------|-------|-------|-------|-------|
--L----------------|-------|-------|-------|-------|-------|-------|-------|
--L----------------|-------|-------|-------|-------|-------|-------|-------|
-------------------|-------|-------|-------|-------|-------|-------|-------|
-------------------|-------|-------|-------|-------|-------|-------|-------|
-------------------|-------|-------|-------|-------|-------|-------|-------|


-------|-------|-------|-------|-------|-------|-------|-------|-------|-------|
-------|-------|-------|-------|-------|-------|-------|-------|-------|-------|
-------|-------|-------|-------|-------|-------|-------|-------|-------|-------|
-------|-------|-------|-------|-------|-------|-------|-------|-------|-------|
-------|-------|-------|-------|-------|-------|-------|-------|-------|-------|
-------|-------|-------|-------|-------|-------|-------|-------|-------|-------|


-------|-------|-------|-------|-------|-------|-------|-------|-------|-------|
-------|-------|-------|-------|-------|-------|-------|-------|-------|-------|
-------|-------|-------|-------|-------|-------|-------|-------|-------|-------|
-------|-------|-------|-------|-------|-------|-------|-------|-------|-------|
-------|-------|-------|-------|-------|-------|-------|-------|-------|-------|
-------|-------|-------|-------|-------|-------|-------|-------|-------|-------|


-------|-------|-------|-------|-------|-------|-------|-------|-------|-------|
-------|-------|-------|-------|-------|-------|-------|-------|-------|-------|
-------|-------|-------|-------|-------|-------|-------|-------|-------|-------|
-------|-------|-------|-------|-------|-------|-------|-------|-------|-------|
-------|-------|-------|-------|-------|-------|-------|-------|-------|-------|
-------|-------|-------|-------|-------|-------|-------|-------|-------|-------|


-------|-------|-------|-------|-------|-------|-------|-------|-------|-------|
-------|-------|-------|-------|-------|-------|-------|-------|-------|-------|
-------|-------|-------|-------|-------|-------|-------|-------|-------|-------|
-------|-------|-------|-------|-------|-------|-------|-------|-------|-------|
-------|-------|-------|-------|-------|-------|-------|-------|-------|-------|
-------|-------|-------|-------|-------|-------|-------|-------|-------|-------|


                   Played on two guitars on the record         
                   H.                                 E   E    
-------|-------|----------------------------------------------|
-------|-------|--15b---------------------------------L--13~--|
-------|-------|--15b---------------------------------L--14~--|
-------|-------|----------------------------------------------|
-------|-------|----------------------------------------------|
-------|-------|----------------------------------------------|


  H.           E  E      H.            E   E      H.           E  E   
---------------------|-------------------------|---------------------|
--L------------L-----|--15b------------L--13~--|--L------------L-----|
--L------------L-----|--15b------------L--14~--|--L------------L-----|
---------------------|-------------------------|---------------------|
---------------------|-------------------------|---------------------|
---------------------|-------------------------|---------------------|


   W                     H.            Q           H         E   E   E   E    
----------------------|-----------------------|------------------------------|
--12br----------------|--L------------10br----|--(10)--------L--10--12--12b--|
--12br----------------|--L------------10br----|--(10)--------L--10--12--12b--|
----------------------|-----------------------|------------------------------|
----------------------|-----------------------|------------------------------|
----------------------|-----------------------|------------------------------|


  H        E   E   E   E      H.            E  E      H        E   E   E   E   
------------------12-------|----------------------|--12--------L--15--17--13--|
--L--------L--15--13--13~--|--L------------15-----|--13--------L--15--17--13--|
--L--------L--16------14~--|--L------------16-----|---------------------------|
---------------------------|----------------------|---------------------------|
---------------------------|----------------------|---------------------------|
---------------------------|----------------------|---------------------------|


  H.            E  E      H          E   E   E   E    
--L------------15-----|--15b---------L--17--20--19b--|
--L------------15-----|--17----------L--17--20--19b--|
----------------------|------------------------------|
----------------------|------------------------------|
----------------------|------------------------------|
----------------------|------------------------------|


  H        E   E   Q         E    Q.       E   E   E   E    
--L--------L--15--17br----|--L--(17)~------L--17--19--19b--|
--L--------L--15--18br----|--L--(18)~------L--18--20--20b--|
--------------------------|--------------------------------|
--------------------------|--------------------------------|
--------------------------|--------------------------------|
--------------------------|--------------------------------|


  H.           Q                                                             
--L-----------------|-------|-------|-------|-------|-------|-------|-------|
--L-----------------|-------|-------|-------|-------|-------|-------|-------|
--------------------|-------|-------|-------|-------|-------|-------|-------|
--------------------|-------|-------|-------|-------|-------|-------|-------|
--------------------|-------|-------|-------|-------|-------|-------|-------|
--------------------|-------|-------|-------|-------|-------|-------|-------|


                   H.            Q                                             
-------|-------|----------------------|-------|-------|-------|-------|-------|
-------|-------|--10~-----------------|-------|-------|-------|-------|-------|
-------|-------|----------------------|-------|-------|-------|-------|-------|
-------|-------|----------------------|-------|-------|-------|-------|-------|
-------|-------|----------------------|-------|-------|-------|-------|-------|
-------|-------|----------------------|-------|-------|-------|-------|-------|


-------|-------|-------|-------|-------|-------|-------|-------|-------|-------|
-------|-------|-------|-------|-------|-------|-------|-------|-------|-------|
-------|-------|-------|-------|-------|-------|-------|-------|-------|-------|
-------|-------|-------|-------|-------|-------|-------|-------|-------|-------|
-------|-------|-------|-------|-------|-------|-------|-------|-------|-------|
-------|-------|-------|-------|-------|-------|-------|-------|-------|-------|


-------|-------||
-------|-------||
-------|-------||
-------|-------||
-------|-------||
-------|-------||





Duration Legend
---------------
W - whole
H - half
Q - quarter
E - 8th
S - 16th
T - 32nd
X - 64th
. - note dotted
|-n-|  - n-tuplets


Tablature Legend
----------------
L - tied note
x - dead note
g - grace note
(n) - ghost note
> - accentuded note
NH - natural harmonic
AH - artificial harmonic
TH - tapped harmonic
SH - semi harmonic
PH - pitch harmonic
h - hammer on
p - pull off
b - bend
br - bendRelease
pb - preBend
pbr - preBendRelease
brb - bendReleaseBend
\n/ - tremolo bar dip
\n - tremolo bar dive
-/n - tremolo bar Release up
/n\ - tremolo bar inverted dip
/n - tremolo bar return
-\n - tremolo bar Release down
S - shift slide
s - legato slide
/ -  slide into from below or out of upwards
\ -  slide into from above or out of downwards
~ - vibrato
W - wide vibrato
tr - trill
TP - tremolo picking
T - tapping
S - slap
P - pop
< - fade in
^ - brush up
v - brush down
Tap to rate this tab
# A B C D E F G H I J K L M N O P Q R S T U V W X Y Z