Song name
# A B C D E F G H I J K L M N O P Q R S T U V W X Y Z

Heart - Silver Wheels tab

Standard tuning 1/2 step down (Eb Ab Db Gb Bb Eb)

------------------0--------------------0-------------------------|
-------------3---(3)--3----------------0-------------------------|
---------4---4--------4--4----4\2--------------2-----2--0--------|
------4--4---------------4----4\2------------2------2-----2------|
----2----------------------2--------0--------------0---------2---|
------------------------------------------0-------0--------------|

-------------------0-------0--------------------------------0----|
----------------2-----3/5----5---3--------------------------0----|
---------0------2-----4/6----6---4--4--2/4--4/7--4\2-------------|
---------2--------------------------4--2/4--4/7--4\2-------------|
------2----2--0------------------2-----------------------0-------|
---0-------------------------------------------------------------|

----------------------------------------------------------------------|
-----------0-------------------------------------------------2--------|
--------2---------2--0---------0----------2------2---------2---2------|
-----2----------2------2-------2--------4----3-----4-----4-------4----|
-------------------------2---2---2----4--------4-------4-----------4--|
---0----------0------------0--------2----------------2----------------|

--------------------------------------------4------------4---2-------|
---------------1------------------1---------0-------0----0---0-----0-|
------------2-----2-------------2---2-------4----4----4--4---2----2--|
---------3-----------3-------3--------1--------2-------------1---1---|
------3--------------------3---------------------------------2-------|
---1--------------------1-------------------0------------0-----------|

---2/4\ 2---0-------------------------------------------------0---|
--------0---0------0------5--4--------------------0---2---4-------|
--------2---6----6---6----6-----6-4-------6\4--2------------------|
--------1---6--6-------6--6----------6-4--6\4--2------------------|
------2-----4-------------4---------------4----0------0---0-------|
--(2)---------------------------------------------------------2---|

--------2------------------------------0----------0------4----------|
--------2--2---------0--2/4--4--5--7---0--------0--------0------0---|
-----2--2-----2----2----2/4--4--6--8---1------1----------6----6---6-|
--4-----4-----------------------------------4---------4--6--6-------|
-----------------------------2---------------------------7----------|
--------0--------0---------------------0-----------------0----------|

--4---2---------2/4-----2---0-------------7---4---------------------|
--0---0-------0---------0---0------0------5------7--4---------------|
--6---2-----2-----------2---6----6---6----4------4-----6--4--6\4----|
--6---1---1-------------1---6--6-------6--6------6-----6-----6\4----|
--7---2--------------2------4-------------4------4-----4-----4------|
--0-----------------------------------------------------------------|

-----------------0----------2---------------------------------------|
-----0---2---4--------------2---2----------0---2/4---4---5--7-------|
--2---------------------2---2------2-----2-----2/4---4---6--8-------|
--2------------------4-----(4)--------------------------------------|
--0------0---0---------------------------------------2--------------|
-----------------2----------0---------0--------------------(0)------|
                                              harmonic
--0---------------0---------------0----------(12)-------------------|
--0-----------0---0-----------0---0---------------(12)harmonic---9--|
--1-------1---1-----------1---1---------------------------------9---|
-------4--------------4---4-----------------------------------------|
--------------------------------------------------------------------|
--0-------------------0----------------(12)-------------------------|
                                    harmonic (h)
Tap to rate this tab
# A B C D E F G H I J K L M N O P Q R S T U V W X Y Z