Song name
# A B C D E F G H I J K L M N O P Q R S T U V W X Y Z

Heartbreakers - Mary Janes Last Dance tab

Tom Petty, Mary Jane's Last Dance
Noah Berke, XxNoahBxX@aol.com
Intro:

e -----0------3------2
b -----1------0------3
g -----2------0------2
D -----2------0------0 
A -----0------2------x
E -----x------3------x


Chorus:

e ---3----0----3----0----3
b ---0----2----0----2----0
g ---0----2----0----2----0 
D ---0----2----0----2----0
A ---2----0----2----0----2
E ---3----x----3----x----3

Tap to rate this tab
# A B C D E F G H I J K L M N O P Q R S T U V W X Y Z