Song name
# A B C D E F G H I J K L M N O P Q R S T U V W X Y Z

Heartbreakers - Something In The Air tab

-------------------------------------------------------------------------------
	             SOMETHING IN THE AIR - Tom Petty and the Heartbreakers
-------------------------------------------------------------------------------
Tabbed by: Alvin
Email: amorales909@gmail.com

Tuning: Standard

 D
Call out the instigator
                 Em
Because there's something in the air
              D
We've got to get together sooner or later
               Em
Because the revolution's here
                    *(see tab below)
And you know it's right 

    D       D/C     D/B    D/C      D   and so on....
e|--------------------------------------------|
B|------3--------3-------3-------3-------3----|
G|----2--------2-------2-------2-------2------|
D|--0------0-------------------------0--------|
A|-----------3-----3-2-----2-3-----3----------|
E|--------------------------------------------| 

And you know it's right 

Em
  We have got to get it together
                                  *(see tab below)
  We have got to get it together now

    D       D/C     D/B    D/C      D   and so on....
e|--------------------------------------------|
B|------3--------3-------3-------3-------3----|
G|----2--------2-------2-------2-------2------|
D|--0------0-------------------------0--------|
A|-----------3-----3-2-----2-3-----3----------|
E|--------------------------------------------| 

 D
Run through the fields and houses
                  Em
Because there's something in the air
              D
We've got to get together sooner or later
             Em
Because the revolution's here
                    * (see tab below)
And you know it's right

    D       D/C     D/B    D/C      D   and so on....
e|--------------------------------------------|
B|------3--------3-------3-------3-------3----|
G|----2--------2-------2-------2-------2------|
D|--0------0-------------------------0--------|
A|-----------3-----3-2-----2-3-----3----------|
E|--------------------------------------------| 

And you know that its right

Em
 We have got to get it together
                                *(see tabs below)          
We have got to get it together now

   D7
e|-----2----------2-------|
B|------------1-----------|
G|---2----0h2-------2-----|
D|-0------------0---------|
A|------------------------|
E|------------------------| X2

   C7
e|------0----------0------|
B|-------------1----------|
G|---------0h3-------3----|
D|----2-------------------|
A|--3------------3--------|
E|------------------------| X2


   D7
e|-----2----------2-------|
B|------------1-----------|
G|---2----0h2-------2-----|
D|-0------------0---------|
A|------------------------|
E|------------------------| X2

   C7
e|------0----------0------|
B|-------------1----------|
G|---------0h3-------3----|
D|----2-------------------|
A|--3------------3--------|
E|------------------------| X2

   Bb7 (play barred)
e|------------------------|
B|------------------------|
G|------------------------|
D|------7----------7------|
A|----8--------6-----6----|
E|--6------6h8---6--------| X2

   A7
e|------------------------|
B|------2----------2------|
G|-------------0-----0----|
D|----2----0h2------------|
A|--0------------0--------|
E|------------------------| X2

Modulation:

     Bb7      A7       B
e|--6-6-6-6--5-5-5-5--7-7-7-7-7-7-7-7--|
B|--6-6-6-6--5-5-5-5--7-7-7-7-7-7-7-7--|
G|--8-8-8-8--7-7-7-7--8-8-8-8-8-8-8-8--|
D|--6-6-6-6--5-5-5-5--9-9-9-9-9-9-9-9--|
A|--7-7-7-7--6-6-6-6--9-9-9-9-9-9-9-9--|
E|--6-6-6-6--5-5-5-5--7-7-7-7-7-7-7-7--|
                             
 E
Call out the instigator
                 F#m
Because there's something in the air
              E     
We've got to get together sooner or later
             F#m
Because the revolution's here
                   E   E/A - E/C# - E/A  (see tab below)
And you know its right

And you know that its right
F#m
   We have got to get it together
                                   E  
   We have got to get it together now
Tap to rate this tab
 
# A B C D E F G H I J K L M N O P Q R S T U V W X Y Z