Song name
# A B C D E F G H I J K L M N O P Q R S T U V W X Y Z

Heartbreakers - Swingin tab

Tom Petty, "Swingin'"
Andrew Graham


Swingin'
Tom Petty
Echo(1999)

Intro/Verse
-2--2--2-3-2-----------------3--3--3-3-3---2--2--2-3-2---
-3--3--3-3-3---1--1--1-0-1---0--0--0-1-0---3--3--3-3-3---
-2--2--2-2-2---0--0--0-0-0---0--0--0-0-0---2--2--2-2-2---
-0--0--0-0-0---2--2--2-2-2---0--0--0-0-0---0--0--0-0-0---
---------------3--3--3-3-3---2--2--2-2-2-----------------
-----------------------------3--3--3-3-3-----------------

Chorus
---------------------------------------------------------
---------------------------------------------------------
-5--------------4--------------7-------------7-----------
-5--------------5--------------7-------------7-----------
-3--------------5--------------5-------------5-----------
----------------3----------------------------------------





Tap to rate this tab
 
# A B C D E F G H I J K L M N O P Q R S T U V W X Y Z