Song name
# A B C D E F G H I J K L M N O P Q R S T U V W X Y Z

Heartless Bastards - Early In The Morning tab

-------------------------------------------------------------------------------
			     Early In The Morning - Heartless Bastards
-------------------------------------------------------------------------------
Tabbed by: Bigevil0214
Email: Bigevil0214@aim.com

Tuning: Standard


                          Verse and Chorus
e|----------------------------------------|
B|----------------------------------------|
G|----------------------7-----------------|
D|---7--------5---------7--(x8)--7--------|
A|---7--(x8)--5--(x8)---5--------7--(x8)--|
E|---5--------3------------------5--------|


                              Bridge Part

e|-------------------------------------------------------------------------------------|
B|-------------------------------------------------------------------------------------|
G|--------------7~---------------------------------------------------------------------|
D|---7~---5~----7~--7~-----------------------------------------------------------------|
A|---7~---5~----5~--7~-----------------------------------------------------------------|
E|---5~---3~--------5~-----------------------------------------------------------------|

Then it goes back to the verse pattern. Then goes back to the bridge pattern at the end. 
easy to get the timing for this song. It's fun to play, and it's a wicked good song. 
me if you have any questions on the tab.

| /  slide up
| \  slide down
| h  hammer-on
| p  pull-off
| ~  vibrato
| +  harmonic
| x  Mute note
===============================================================================
Tap to rate this tab
# A B C D E F G H I J K L M N O P Q R S T U V W X Y Z