Heartless Bastards - The Mountain tab

-------------------------------------------------------------------------------
		                     The Mountain - Heartless Bastards
-------------------------------------------------------------------------------

Tabbed by: Tyler

Email: I  got a UG account

Tuning: Standard EADGBe


Real simple but real good, its just this throughout the whole song. Figured it out by 
Erika play it.

e|---------------------------------------------------------------------------|
B|---------------------------------------------------------------------------|
G|-----------------------------------------1---1---1---1---1-----------------|
D|-------7---7---7--7-0---6---6---6--6-0---2---2---2---2---2-----------------|
A|-------4---4---4--4-0---4---4---4--4-0---2---2---2---2---2-----------------|
E|-------5---5---5--5-0----------------0---0---0---0---0---0-----------------|


************************************
Tap to rate this tab
 
# A B C D E F G H I J K L M N O P Q R S T U V W X Y Z