Song name
# A B C D E F G H I J K L M N O P Q R S T U V W X Y Z

Hearts Of Black Science - Empty City Lights chords

Highlighted       Show chord diagrams
https://www.facebook.com/Hobsband
My first tab
This is my version, I hope you like. 

Intro:

._____________3x______________.
e|----------|   |-------------|  
B|--13-12---|   |--13-13-12---|  
G|-------12-|5x |----------12-|  
D|----------|or |-------------|  
A|----------|4x |-------------|  
E|----------|   |-------------|

e|-------------------------------|  |---------------------------12~|
B|-------13~-------13-12---------|  |-------13~-------13-12--------|
G|----------------------12-14----|  |----------------------12-14---|
D|--14-15-----14-15----------14~-|  |--14-15-----14-15-------------|
A|-------------------------------|  |------------------------------|
E|-------------------------------|  |------------------------------|




Intro: F  Am  Am/C

F                        Am        Am/C
 The memories of us will fade away
F                          Am      Am/C
 Falling deep like rocks in water
F                          Am          Am/C
 Like a drain our pain will rain again
F                             Am        Am/C
 Pictures blown like scissor paper cuts


G       Am              F
 As we move on into the darkness
G         Am                    F       C
 Forever dreams will touch your hands
G         Am               F
 Heading for the brand new circus
G              Am                  F      C
 They call your name they want you back

F Am Am/C

F                          Am              Am/C
 The wicked mind is calling for the voice
F                        Am           Am/C
 Bursting out from empty city lights
F                        Am           Am/C
 The city's sweeping over me and you
F                    Am                Am/C
 Everybody's sleeping in their minds


G       Am              F
 As we move on into the darkness                  
G         Am                    F       C
 Forever dreams will touch your hands
G         Am               F
 Heading for the brand new circus
G              Am                  F      C
 They call your name they want you back       (2x)


F                        Am        Am/C
 The memories of us will fade away    (4x)
Tap to rate this tab
 
# A B C D E F G H I J K L M N O P Q R S T U V W X Y Z