Song name
# A B C D E F G H I J K L M N O P Q R S T U V W X Y Z

Hearts That Hate - Cry Tonight tab

Help us improve GuitareTab! Take a short survey!
There's obviously a 2nd guitar here
but I can't figure that out...
The guitar tab repeats itself.


The Intro:
(Is also the same thing as the chorus)

E |----------------------||
B |---------------------*||
G |-7----3----5----------||
D |-7-x8-3-x8-5-x8-5-----||
A |-5----1----3----5-x8-*||
E |----------------3-----||

|-------------------------------------------------------------||
|------------------------------------------------------------*||
|-7----------------10----------------3------------------------||
|-7----------------10----------------3----5-------------------||
|-5----------------8-----------------1----5------------------*||
|-----------------------------------------3-------------------||
I remember that night,so cold and so dark,kind of like your heart...
______I wanted to die, I wanted to cry,I wish we can go from the start.
____I'm trying to run,I'm trying to hide,But just know that I will...

E |----------------------||
B |---------------------*||
G |-7----3----5----------||
D |-7-x8-3-x8-5-x8-5-----||
A |-5----1----3----5-x8-*||
E |----------------3-----||

Cry tonight...
My hands around your hands -
I won't let you...
Die tonight...
My heart's in your hands -
I won't let you...
Die...

|-------------------------------------------------------------||
|------------------------------------------------------------*||
|-7----------------10----------------3------------------------||
|-7----------------10----------------3----5-------------------||
|-5----------------8-----------------1----5------------------*||
|-----------------------------------------3-------------------||

Don't want to fight,
I don't want to write,
Any more songs about you.
Still waiting it out,
Why do you have to shout,
I just want to forget you.

I was trying to run,
Trying to hide,
But just know that I will...

Cry tonight...
My hands around your hands -
I won't let you...
Die tonight...
My heart's in your hands -
I won't let you...

Die Die Die
I won't let you...
Die Die Die
I won't let you
Dieeeeeeeeeeeee...
Related for Cry Tonight tab