Heartsounds - The Song Inside Me tab

Heartsounds "The Song Inside Me"
From the Album 'Until We Surrender' 2010

http://www.epitaph.com/artists/artist/277/Heartsounds
http://www.myspace.com/heartsoundsband

Someone else should tab all the other Heartsounds tunes, I'm a lazy bum.
*sheepo411*


Start bit:
e|-------------------------|
B|-------------------------|
G|------3-3----3-----------|
D|----1------1-------------|
A|--3------3---------------|
E|-------------------------|

Intro

Guitar 1:
e|--------------------------------------|
B|--------------------------------------|
G|--5-5-5-5--3-3-3-3--------------------|
D|--5-5-5-5--3-3-3-3--6-6-6-6--3-3-3-3--|  x4
A|--3-3-3-3--1-1-1-1--6-6-6-6--3-3-3-3--|
E|--------------------4-4-4-4--1-1-1-1--|

Guitar 2:
e|---------------------------------------------------------------|
B|--11-----------------------------------------------------------|
G|-----12-10-12-------10-12-10--10-10-------------10-------------|
D|--------------13-13-----------------13-10-13-13----13-10-13-13-| x3
A|---------------------------------------------------------------|
E|---------------------------------------------------------------|

Guitar 2 - last time
e|----------------------------------------------------------------|
B|--11---------------------------------------------------11-------|
G|-----12-10-12-------10-12-10--10-10-----------------10----12-12-|
D|--------------13-13-----------------13-10-13--13-13-------------|
A|----------------------------------------------------------------|
E|----------------------------------------------------------------|


Verse

Both guitars:
e|------------------------------------------|
B|------------------------------------------|
G|--5-5-5----3-3-3--------------------------|
D|--5-5-5----3-3-3----6-6-6----3-3-3-3-3-3--|
A|--3-3-3----1-1-1----6-6-6----3-3-3-3-3-3--| x2
E|--------------------4-4-4----1-1-1-1-1-1--|

Guitar 1:
e|------------------------|--1st 3 times------|--Last time---------------------|
B|------------------------|-------------------|--------------------------------|
G|--5-5-5--3-3-3----------|-------------------|--------------------------------|
D|--5-5-5--3-3-3--6-6-6---|----3-3-3------ x3-|--3--------------------6--------| x4
A|--3-3-3--1-1-1--6-6-6---|----3-3-3----------|--3-3333333333333333---6--------|
E|----------------4-4-4---|----1-1-1----------|--1-1111111111111111---4--------|

Guitar 2:
e|------------------------------------------|
B|------------------------------------------|
G|-----12---12---10--12-10------------------|
D|--/10---10---8----------------------------|
A|-------------------10-8-------------------| x4
E|------------------------------------------|


Chorus

Both Guitars:
e|---------------------------------------|
B|---------------------------------------|
G|--88-888-8-----------------------------|
D|--88-888-8-88-888-8--66-666-666-666-6--|
A|--66-666-6-88-888-8--66-666-666-666-6--| x2
E|-----------66-666-6--44-444-444-444-4--|

Guitar 1:
e|------------------------|
B|------------------------|
G|--55-5--33-3------------|
D|--55-5--33-3--66-666-6--|
A|--33-3--11-1--66-666-6--| x 4
E|--------------44-444-4--|

2nd Guitar (last 3 times)
e|------------------------|
B|------------------------|
G|--12---10--8------------|
D|------------------------|
A|--10---8---6------------|
E|------------------------|

Guitar 1:
e|--------------------------------|
B|--------------------------------|
G|--------------------------------|
D|--3--------------------6--------|
A|--3-3333333333333333---6--------| x4
E|--1-1111111111111111---4--------|

Guitar 2:
e|--------------------------------|
B|--------------------------------|
G|--12------14-15-----------------|
D|--------------------------------|
A|--10------12-13-----------------|
E|--------------------------------|

Play the verse and chorus again...

Bridge

e|-------------------------------------------|
B|-------(PM)..........------(PM)..........--|
G|--555--55555555555555--555-55555555555555--|
D|--555--55555555555555--555-55555555555555--|
A|--333--33333333333333--333-33333333333333--|
E|-------------------------------------------|

e|-----------------------------------------------|
B|-----------------------------------------------|
G|-----------------------------------------------|
D|--5-5-5------8-8----1010-----------8-8---------|
A|--3-3-3-6-6--6-6-8--8-8--3-3--6-8--6-6--8-8----|
E|--------4-4------6-------1-1--4-4-------6-6----|

e|-----------------------------------------------------------------------------|
B|-----------------------------------------------------------------------------|
G|-----------------------------------------------------------------------------|
D|--5-5-5------8-8----1010-----------------8-8---------------------------------|
A|--3-3-3-6-6--6-6-8--8-8---3-3--5-5--6-6--6-6--8-8--8-- repeat w/ above riff--| x2
E|--------4-4------6--------1-1--3-3--4-4-------6-6--6-------------------------|

e|-------------------------------------------------------------------------------|
B|-------------------------------------------------------------------------------|
G|-------------------55555555--33333333-------------------88888888------(PM)-----|
D|--6666666666666666-55555555--33333333--6666666666666666-88888888-8888-8888-10--|
A|--6666666666666666-33333333--11111111--6666666666666666-66666666-8888-8888-10--|
E|--4444444444444444---------------------4444444444444444----------6666-6666-8---|

e|-----------------|
B|-----------------|
G|-----------------|
D|--6---8-8-8--8---|
A|--6---8-8-8--8---| back to chorus...
E|--4---6-6-6--6---|
Tap to rate this tab
 
# A B C D E F G H I J K L M N O P Q R S T U V W X Y Z