Song name
# A B C D E F G H I J K L M N O P Q R S T U V W X Y Z

Heartsounds - Dont Talk With Your Mouth Open tab

-----------------------------------------------------------------------------
			     Don't Talk With Your Mouth Open - Heartsounds
-----------------------------------------------------------------------------
Tabbed by: Vaterflip


Tuning: Not sure how they tune but I played it in standard.

Notes: Bored and like the song and it's fun to play so I decided to give it a quick tab 
so it's not 100%.
       I'm not putting rhythms in, just the notes and chords.

       Toss in a little bit of bend/vibrato on the pinch harmonics.

       Have fun.

Intro

Lead
e|-----------------------------------------------7----------|
B|-7----------------7-7--------7----------------7--10-7-----|
G|--7-------7----7h9---9-7-9----7-------7----7h9------------|
D|---7-7-7h9--7h9----------------7-7-7h9--7h9---------------|
A|----------------------------------------------------------|
E|----------------------------------------------------------|

e|-----------------------------------------------|
B|-7----------------7----------------------------|
G|--7-------7----7h9---9-7-9-7-7-7-9-9-9---------|
D|---7-7-7h9--7h9--------------------------------|
A|-----------------------------------------------|
E|-----------------------------------------------|

Rhythm
e|--------------------------------------------------------------------------|
B|--------------------------------------------------------------------------|
G|----------------77777------------------------------------7----------------|
D|-77777--77-99---77777-77-99---77777--77-99---55555-77777-7----------------|
A|-77777--77-99---55555-77-99---77777--77-77---55555-77777-5----------------|
E|-55555--55-77---------55-77---55555--55-77---33333-55555------------------|
                                                        xx



Verse
e|-----------------------------------------------------|
B|-----------------------------------------------------|
G|-----------------------------------------------------|
D|-7777-----------7+---5+--7777---------7--------------|
A|-5555-7/9-7-5------------5555-7/9-7-5--9-7-9-7-5-7---|
E|--------------5----3---------------------------------|
   xxxx         x    x     xxxx

e|--------------------------------------|
B|--------------------------------------|
G|--------------------------------------|
D|--7777-----------7+--5+-55555-77777---|
A|--5555-7/9-7-5----------55555-77777---|
E|---------------5---3----33333-55555---|
                 x   x

Heavy palm mute rhythm in second verse
e|--------------------------------------------------------------------------|
B|--------------------------------------------------------------------------|
G|-77777777------------77777777------7777-77777777--------------------------|
D|-77777777-7777-9999--77777777-7777-7777-77777777-7777-9999--55555-77777---|
A|-55555555-7777-9999--55555555-7777-5555-55555555-7777-9999--55555-77777---|
E|----------5555-7777-----------5555---------------5555-7777--33333-55555---|


Chorus

e|--------------------------------------------------------------------------|
B|--------------------------------------------------------------------------|
G|--------777777------------------------------------------------------------|
D|-999999-555555-555555-777777----------------------------------------------|
A|-999999-555555-555555-777777----------------------------------------------|
E|-777777--------333333-555555----------------------------------------------|


Bridge

	Lead
e|-----------------------------------------------------------|
B|-5-5-7-5-3-5-3-3---5-5-7-5-3-5------5-5-7-5-3-5-2-2-0-0----|
G|-------------------------------2-2----------------------2--|
D|-----------------------------------------------------------|
A|-----------------------------------------------------------|
								end with
e|-----------------5-5------------------------|---------------------------5|
B|-5-5-7-5-3-5-3-3----7-7-5-5-3---------------|-5-5-3-3--5-5-3-3--7-7-5-5--|
G|--------------------------------------------|----------------------------|
D|--------------------------------------------|----------------------------|
A|--------------------------------------------|----------------------------|
E|--------------------------------------------|----------------------------|

	Rhythm
e|--------------------------------------------------------------------------|
B|--------------------------------------------------------------------------|
G|-------7777-------------------------7777----------------------------------|
D|-5555--7777--7777--2222--2-4--5555--7777--7777--2222--2-4-55555--77777----|
A|-5555--5555--7777--2222--2-4--5555--5555--7777--2222--2-4-33333--77777----|
E|-3333--------5555--0000--0-2--3333--------5555--0000--0-2-33333--55555----|



End

	Lead

e|----------------------------------------------------------|
B|--------------------------------------------------7-------|
G|----------------------------------------4h7p4-7/9---9-7---|
D|-7-7-7+~ -4-----------4-------7-7-7+~ 4-------------------|
A|------------7-7-7-7-7---7-5-------------------------------|
E|----------------------------------------------------------|

e|----------------------------------------------------|
B|----------------------------------------------------|
G|---------------------------777777777777/9999/777----|
D|-7-7-7+~ 4-----------4------------------------------|
A|-----------7-7-7-7-7---7-5--------------------------|
E|----------------------------------------------------|

	Rhythm
e|--------------------------------------------------------------------------|
B|--------------------------------------------------------------------------|
G|-----7--------------7------------------7---------7777777777---------------|
D|-555-5-7-7777---555-5-99-77-55-77--555-5-7-7777--5555555555---------------|
A|-555-5-7-7777---555-5-99-77-55-77--555-5-7-7777--5555555555---------------|
E|-333---5-5555---333---77-55-33-55--333---5-5555---------------------------|


| h   hammer-on
| p   pull-off
| ~   vibrato
| +   pinch harmonic
| x   palm mute


Questions or suggestions? Leave them in the comments.
Tap to rate this tab
# A B C D E F G H I J K L M N O P Q R S T U V W X Y Z