Song name
# A B C D E F G H I J K L M N O P Q R S T U V W X Y Z

Heat - There For You tab

E---------------------------------|
B---------------------------------|
G----------12-14-12-10-9-12-10~~~-|
D-12-14-15------------------------|
A---------------------------------|
E---------------------------------|


E---------------------------------|
B----------------------13-15------|
G----------12-14-12-10-------14~~-|
D-12-14-15------------------------|
A---------------------------------|
E---------------------------------|


E---------------------------------|
B---------------------------------|
G----------12-14-12-10-9-12-10~~~-|
D-12-14-15------------------------|
A---------------------------------|
E---------------------------------|

E---------------------------------|
B---------------------------------|
G----------12-14-15-17-17~~~~~~~~-|
D-12-14-15------------------------|
A---------------------------------|
E---------------------------------|

Well that's the intro. 100% sure.
Will tab the rest out later.
http://www.heatsweden.com/
Tap to rate this tab
# A B C D E F G H I J K L M N O P Q R S T U V W X Y Z