Song name
# A B C D E F G H I J K L M N O P Q R S T U V W X Y Z

Heat - Living On The Run tab

Living on the Run - H.E.A.T (Address the Nation)


Tuning: E Standard

they might have recorded it tuned a half step down-Eb (it would make most sense) 
which would mean that they'd play on the 7th fret instead of the 6th and also 
could play the open low E string

So
Standard Tuning (E) 6th fret
Half step down (Eb) 7th Fret
and so on...

this tab is written like they play it live which is in standard tuning (E)


[Verse]
(palm mute all single notes)

e|---------------------------------------------------------------|
B|---------------------------------------------------------------|
G|---------------------------------------------------------------|
D|---------------------------------------------------------------|
A|---6-6-6-6-6-6-6-6-6-6-6-6-6-6-6-6-6-6-6-6-6-6-6-6-6-6-6-6-6---|
E|---------------------------------------------------------------|

e|-----------------------------------------------|
B|-----------------------------------------------|
G|---------------------4----8----6----------8\---|
D|---------------------4----8----6----------8\---|
A|---6-6-6-6-6-6-6-6---2----6----4-------4--6\---|
E|------------------------------------6----------|


[Pre-Chorus]
(palm mute all single notes)

e|-------------------------------------------|
B|-------------------------------------------|
G|---4-----------------4-6-------------------|
D|---4-----------------4-6-------------------|
A|---2-2-2-2-2-2-2-2-2-2-4-4-4-4-4-4-4-4-4---|
E|-------------------------------------------|

e|----------------------------------------------|
B|----------------------------------------------|
G|-----4------------------6-6--6-6--6--6-6--6---|
D|---4-4------------------6-6--6-6--6--6-6--6---|
A|---1-2-2-2-2-2-2-2-2-2--4-4--4-4--4--4-4--4---|
E|----------------------------------------------|


[Chorus]

Just a word from you...
e|----------------------------------------------------|
B|----------------------------------------------------|
G|---6/8--8--------4---6--------4---6-----------------|
D|---6/8--8---4----4---6---4----4---6-----------------|
A|---4/6--6---1/2--2---4---4----2---4---6--8--9--13---|
E|-------------------------2--------------------------|

Baby close your eyes...
e|--------------------------------------|
B|--------------------------------------|
G|---6/8--8--------4---6--------4---6---|
D|---6/8--8---4----4---6---4----4---6---|
A|---4/6--6---1/2--2---4---4----2---4---|
E|-------------------------2------------|

Oh oh, living on the run
e|-------------------------|
B|-------------------------|
G|---4---6-----------------|
D|---4---6-----------------|
A|---2---4---6--8--9--13---|
E|-------------------------|

Oh oh, living on the run
e|-----------|
B|-----------|
G|---4---6---|
D|---4---6---|
A|---2---4---|
E|-----------|


[Bridge]

e|-------------------------------------------------------|
B|------------4---5---4---5---4--7---6---7---7---6---6---|
G|---------4--4-4-4-4-4-4-4-4-4--6-6-6-6-6-6-6-6-6-6-6---|
D|---6-----4--4-4-4-4-4-4-4-4-4--6-6-6-6-6-6-6-6-6-6-6---|
A|---6---1-2--2-2-2-2-2-2-2-2-2--4-4-4-4-4-4-4-4-4-4-4---|
E|---4---------------------------------------------------|

e|------------------------------------------|
B|---5---4---4---5---4---4--------7-6-------|
G|---4-4-4-4-4-4-4-4-4-4-4--6-6---6-6---6---|
D|---4-4-4-4-4-4-4-4-4-4-4--6-6---6-6---6---|
A|---2-2-2-2-2-2-2-2-2-2-2--4-4---4-4---4---|
E|------------------------------------------|


[Rhythm during solo]

e|-------------------------|
B|-------------------------|
G|---4---6-----------------|
D|---4---6-----------------|
A|---2---4---6--8--9--13---|
E|-------------------------|

e|-----------------------------------------------|
B|-----------------------------------------------|
G|---6/8--8--------4---6--------4---6----4---6---|
D|---6/8--8---4----4---6---4----4---6----4---6---|
A|---4/6--6---1/2--2---4---4----2---4----2---4---|
E|-------------------------2---------------------|


************************************

| /   slide up
| \   slide down
| h   hammer-on
| p   pull-off
| ~   vibrato
| +   harmonic
| x   Mute note
| b   Bend
| pb  Pre-bend
| br  Bend release
| pbr Pre-bend release
| brb Bend release bend

************************************
Tap to rate this tab
 
# A B C D E F G H I J K L M N O P Q R S T U V W X Y Z