Song name
# A B C D E F G H I J K L M N O P Q R S T U V W X Y Z

Heathen - Goblins Blade tab

Heathen - Goblins Blade

intro: 
|---------------------------------------------|
|---------------------------------------------|
|---------------------------------------------|
|---------------------------------------------|
|--7/9~--7-9-5-7~--7-5-4-------5~--7p5-7-7/9--|
|------------------------4~-7~----------------|
p.m. - - - - - - - - - - - - - - -

|-----------------------------------------------------------------------|
|-----------------------------------------------------------------------|
|-----------------------------------------------------------------------|
|-----------------------------------------------------------------------|
|--12~-12-11-9-11~--12-9-7--------9~--11-9-11/16--16-14-12-14-14-12-10--|
|--------------------------7~-10~---------------------------------------|
p.m. - - - - - - - - - - - - - - - - - - - - - - - - - -

|--------------------------------------------------|
|--------------------------------------------------|
|--------------------------------------------------|
|--------------------------------12-15-12----11~~--|
|--------11-14-11h14p11----11-14----------14-------|
|--10-13----------------13-------------------------|

Main riff: 
|------------------------------------------------------------------------------|
|------------------------------------------------------------------------------|
|------------------------------------------------------------------------------|
|------------------------------------------------------------------------------|
|-4-------------4--6--7--2-------------2-4-6-4-------------4-6-7-9--12--11--9--|
|-2-2-2-2-2-2-2-2--4--5--0-0-0-0-0-0-0-0-2-4-2-2-2-2-2-2-2-2-4-5-7--10---9--7--|

Start singing: 
|------------------------------------------------------------------------------------|
|------------------------------------------------------------------------------------|
|------------------------------------------------------------------------------------|
|-----------------------------------------------------------------------------2---4--|
|-4-------------4--6--7--2-------------2-------------2-2-4-6-4--------------2---2----|
|-2-2-2-2-2-2-2-2--4--5--0-0-0-0-0-0-0-0-0-0-0-0-0-0-0-0-2-4-2-2-2-2-2-2-2-----------|

|---------------------------------------------------------------------------------------|
|---------------------------------------------------------------------------------------|
|-------------------------6-4-----------------------------------------------------------|
|-7-------------7-7-7--6------6-4-6-7-------------7-7-7--4-------------6----------------|
|-5-5-5-5-5-5-5-5-5-5--4------------5-5-5-5-5-5-5-5-5-5--2-2-2-2-2-2-2-4-4-4-4-4-4-4-5--|
|------------------------------------------------------------------------------------3--|

End 2:
|-----------------------------------|
|-----------------------------------|
|--6-4-------4-2--------------------|
|------6-4-6-----4-2-4--------------|
|------------------------2-5---2-5--|
|----------------------0-----0------|

Before solo:
|------------------------------------------------------------------------------------------|
|------------------------------------------------------------------------------------------|
|------------------------------------------------------------------------------------------|
|------------------------------------------------------------------------------------------|
|-4-------------4-----------------2-1---1---4-------------4-------------0-2-4-5-4----------|
|-2-2-2-2-2-2-2-2-2-2-2-2-2-2-2-2-----3---3-2-2-2-2-2-2-2-2-2-2-2-2-2-2-----2-3-2-2-2-2-..-|

Under solo 1: 
|------------------------------------------------------------------------------------------|
|------------------------------------------------------------------------------------------|
|------------------------------------------------------------------------------------------|
|-6-----------------7-6----------------6-7-9-------------------------6---------------------|
|-4-444444444444444-5-4-44444444444444-4-5-7-7-------------------7-9-4-9-------------------|
|--------------------------------------------5-55555555555555555-5-7---7-7777777777777777--|

Under solo 2: 
|------------------------------------------------------------------------------------------|
|------------------------------------------------------------------------------------------|
|------------------------------------------------------------------------------------------|
|-7---------------------6-------------------7----------------------------------------------|
|-5-5555555555555555555-4-44444444444444444-5-5555555555555555555555-9---------------------|
|--------------------------------------------------------------------7-7777777777777777777-|



Tap to rate this tab
# A B C D E F G H I J K L M N O P Q R S T U V W X Y Z