Guitaretab - guitar tabs
Song name
# A B C D E F G H I J K L M N O P Q R S T U V W X Y Z

Heathen - Save The Skull tab

                        Heathen
             from the album " Breaking the Silence" ( 1987)
                        Track 8= Save the Skull
 Tuning:Standard {EADGBE}


There is only one guitar for the intro.


E------------------------------------------------------------|
B------------------------------------------------------------|
G------------------------------------------------------------|
D---2----5---7---2-----10--9----2----5---7---2------10-9-----|
A---2----5---7---2-----10--9----2----5---7---2------10-9-----|
E---0----3---5---0------8--7----0----3---5---0---00--8-7-----|
                                                 ..
Repeat this a couple of times

[ Tab from: http://www.guitaretab.com/h/heathen/95393.html ]
This peice played after the intro.
E---------------------------------------------------------------------------|
B---------------------------------------------------------------------------|
G---------------------------------------------------------------------------|
D------------5/7-----------10\9-------------5/7-----------10-9--------------|
A------------5/7-----------10\9-------------5/7-----------10-9--------------|
E-0--0000000-3/5-0--0000000-8\7--0--0000000-3/5-0--0000000-8-7--------------|
  .  .......     .  .......      .  .......     .  .......

       RePeat This A few times too.                          Just Srum
                                                             10     9
                                                             10     9
                                                              8 and 7 ONCE
                                                              AS SHOWN!
                                                         Do not SLIDE DOWN!
 Legend
.=Palm muted
/=slide up
\-slide down
Related for Save The Skull tab