Song name
# A B C D E F G H I J K L M N O P Q R S T U V W X Y Z

Heather Nova - I Miss My Sky Amelia Earharts Last Days tab

    _________________
   / Heather Nova   /  At a concert with Heather, she told that this song is about the first
  / I Miss My Sky  /  female pilot to cross the Atlantic in history called Amelia Earhart.
 / Redbird        /  After her achievements the news was spread all around the world, but
/________________/  unfortunately she crashed on an uninhabited island on her way back to
                   glory. This song is about her lonely last, stranded days at the unknown,
imprisoning island. It's about how the sky, which she longed for surrounded her yet she
trapped was to the ground, and her frustrations about why she hadn't just died in the crash.



 Verses:
  F               C/e               F(maj7)         C/e
|---------------------------------|-----------(0)*--------------------|
|---1-----1-----1---1-----1-----1-|---1-----1-----------1-----1-----1-|
|-----2-----2---------0-----0-----|-----2---------2-------0-----0-----|
|-3-----3-----3---2-----2-----2---|-3-----3---------3-2-----2-----2---|
|---------------------------------|-----------------------------------|
|---------------------------------|-----------------------------------|
 (*this note is ringing throughout the rest of the measure)

  G                                 G
|-------3---------------3-------3-|-------3-------3-------3---------|
|-----------3---------------------|---------------------------3-----|
|---4---------4-----4-------4-----|---4-------4-------4---------4---|
|-----5---5-----5-----5---5---5---|-----5---5---5-------5---5-----5-|
|---------------------------------|---------------------------------|
|-3---------------3---------------|-3---------------3---------------|
 ...beneath my sky...




 Pre-Chorus:
  Am                                F
|-------0-------0-------0-------0-|-------1-------1-------1-------1-|
|---1-------1-------1-------1-----|---1-------1-------1-------1-----|
|-----2-------2-------2-------2---|-----2-------2-------2-------2---|
|---------2-------2-------2-------|---------3-------3-------3-------|
|-0-------------------------------|---------------------------------|
|---------------------------------|-1-------------------------------|

  G                                 G
|-------3---------------3-------3-|-------3-------3-------3---------|
|-----------3---------------------|---------------------------3-----|
|---4---------4-----4-------4-----|---4-------4-------4---------4---|
|-----5---5-----5-----5---5---5---|-----5---5---5-------5---5-----5-|
|---------------------------------|---------------------------------|
|-3---------------3---------------|-3---------------3---------------|



 Chorus:
| Am | F | G | G | Am | Am |
...chords picked same way as in the previous measures

The electric guitar lays in the chords in strums
Tap to rate this tab
# A B C D E F G H I J K L M N O P Q R S T U V W X Y Z