Guitaretab - guitar tabs
Song name
# A B C D E F G H I J K L M N O P Q R S T U V W X Y Z

Heather Nova - Singing You Through tab

    _______________________
   / Heather Nova         /  This beautiful song is about a person being 
  / Singing You Through  /  helped through hard times by a close person.
 / Redbird              /  In first place he's not willing to give in to
/______________________/  the help to maintain his pride, but he is helped.



 1st Guitar:
(Heather Nova on Steel-Stringed Acoustic, capo on 2nd fret)

 Intro & Interludes:
  E       E/D#    C#m7    Bsus4     Asus2           F#m11   Bsus4
|-----0-------0-------0-------0---|-----0-------0-------0-----------|
|-0-------0-------0-------0-------|-0-----0---------0-----0-----0---|
|-1-----------------------8-------|-6-------6-------2---------------|
|---------1-----------------------|---------------------------------|
|-----------------4---------------|-------------------------2-------|
|-0-----------------------7-------|-5---------------2---------------|


 Verses:
  E                                 Badd11
|---------------------------------|-----0-------0-------0-------0---|
|---------------------------------|-------0-------0-------0-------0-|
|---------------------------------|---------8---------------8-------|
|---------------------------------|---------------------------------|
|---------------------------------|---------------------------------|
|-0-------------------------------|-7---------------7---------------|
          do you think I can't see through                      to


  Aadd9           E
|-----0-------0-------0-------0---|
|-------0-------0-------0-------0-|
|-------------------------1-------|
|---------7-----------------------|
|---------------------------------|
|-5---------------0---------------|
  who    you      are


    E                                 Badd11
||------0-------0-------0-------0---|-----0-------0-------0-------0---|
||o-------0-------0-------0-------0-|-------0-------0-------0-------0-|
||----------1---------------1-------|---------8---------------8-------|
||----------------------------------|---------------------------------|
||o---------------------------------|---------------------------------|
||--0---------------0---------------|-7---------------7---------------|
            all the life that shines below                         the
   hide           build up a wall in-side          and turn yourelf to

[ Tab from: http://www.guitaretab.com/h/heather-nova/67042.html ]
  C#m                               Aadd9
|-----4-------4-------4-------4---|-----0-------0-------0-------0----||
|-------5-------5-------5-------5-|-------0-------0-------0-------0-o||
|---------6---------------6-------|----------------------------------||
|-----------------6---------------|---------7---------------7--------||
|-4-------------------------------|---------------------------------o||
|---------------------------------|-5---------------5----------------||
  pain,                 the scars       did you think that you could
  stone      and go through this a-lone                  no, I'll be


 Chorus:
||------0-------0-------0-------0---|-----0-------0-------0-------0----||
||o-0-------0-------0-------0-------|-------0-------0-------0-------0-o||
||--1-------------------------------|-------------------------6--------||
||----------1-----------------------|---------7------------------------||
||o-----------------4---------------|-----------------7---------------o||
||--0-----------------------7-------|-5--------------------------------||
  there      like a bird              singing to you         I'll be
  there      like a bird              singing you through    I'll be
  there        I'll be there          holding the light for you


|-----0-------0-------0-------0---|---------------------------------|
|-------0-------0-------0-------0-|---------------------------------|
|---------6---------------6-------|---------------------------------|
|---------------------------------|---------------------------------|
|---------------------------------|-0-------------------------------|
|-5---------------5---------------|---------------------------------|
  making it right for you                                singing you through




 2nd Guitar:
(Berit Fridahl on Clean Electric, no capo)

 Chorus:
|-14--------------|-----------------|-----------------|------------------|
|-14-----12\11----|-12/14-----------|--------12\11----|-12/14---12\11----|
|-15-----------11-|-----------11/13-|-11-----------11-|---------------11-|
|-----------------|-----------------|-----------------|------------------|
|-----------------|-----------------|-----------------|------------------|
|-----------------|-----------------|-----------------|------------------|

|-14--------------|-----------------|-----------------|------------------|
|--------12\11----|-11/12/14\12-----|-11/12/14\12-----|-(12)-------------|
|--------------11-|-----------------|-----------------|------------------|
|-----------------|-----------------|-----------------|------------------|
|-----------------|-----------------|-----------------|------------------|
|-----------------|-----------------|-----------------|------------------|


 Interludes:
|----------------------|-----------4h5-4-----------|---
|-14---12---11---5-----|-5---------5---------------|---
|-15---13---11---6p4---|-4---6---------------------|---
|--------------------6-|-------------------6-4-----|---
|----------------------|-----------------------7-4-|-7-
|----------------------|---------------------------|---


 Verses:
strum the bar chords with the b- and e-strings open



- 26th /December /05
Just mail me at Maitinin@gmail.com with questions, comments or corrections!
Related for Singing You Through tab