Song name
# A B C D E F G H I J K L M N O P Q R S T U V W X Y Z

Heather Peace - I Will Make A Wish tab

I can't believe there aren't any Heather Peace tabs already :O

Ok so this is pretty simple, I worked it out by ear and by watching her performances. 
The chords for the choruses may not be 100%, but they sound like they fit.
It's my first tab too, so be nice!


Standard Tuning
Capo 4


Chords used:

      G           D          G barre (Gb)         A
  
||----3----||-----2------||-----3---------||------0-------||
||----0----||-----3------||-----3---------||------2-------||
||----0----||-----2------||-----4---------||------2-------||
||----0----||-----0------||-----5---------||------2-------||
||----2----||-----0------||-----5---------||------0-------||
||----3----||-----0------||-----3---------||------0-------||



Intro, Verses and Outro:

||------------------------|------------------------|-----------------------|
||-----------2------------|-----------0------------|----------3------------|
||--------4----4-------2--|--------2----2-------2--|-------2----2-------2--|
||-----2---------2--------|-----0---------0--------|----0---------0--------|
||--0--------------0------|------------------------|-----------------------|
||------------------------|--3---------------3-----|--2--------------2-----|


-------------------------||
-----------3-------------||
--------2----2-------2---||
-----0---------0---------||
-------------------------||
--1---------------1------||


Choruses:

Please be aware that Gb doesn't mean G flat here - it actually is a G barre chord, 
so I've written it as Gb to distinguish it from the normal G chord.


G              D                 Gb               A
I will make a wish and give you wings so you can fly

G                    D                      Gb                  A
Turn your blue eyes green again, giving you no more need to cry

G              D                  Gb                 A
You will fly above the clouds and whisk towards the moon

G                   D                        Gb              A
Catch a dream on a falling star, one that's dancing to your tune



If you have any questions, feel free to email me: emilylhoward@hotmail.co.uk
Tap to rate this tab
 
# A B C D E F G H I J K L M N O P Q R S T U V W X Y Z