Song name
# A B C D E F G H I J K L M N O P Q R S T U V W X Y Z

Heatwave - Boogie Nights tab

Artist: Heatwave
Song: Boogie Nights

This riff is an awesome warmup and an impressive way to wow your friends.

Intro:
G|-9---11----9---------|-----------------------|-------9-----------------|
D|---9----12---9-12----|-9-------------------9-|-12------10-12----10-----|
A|------------------12-|---10-12-------10-12---|----12---------12----10--|
E|---------------------|---------10-12---------|-------------------------|

|----------------------------|
|----------------------------|
|-12-8-10------8-10-12-------|
|---------8-10---------------|

There ya go, sorry it's onlt the intro but I only use it as a warmup anyway.

Band Website: http://www.heatwaveband.com/Home.htm
Tap to rate this tab
# A B C D E F G H I J K L M N O P Q R S T U V W X Y Z