Song name
# A B C D E F G H I J K L M N O P Q R S T U V W X Y Z

Heaven And Hell - Follow The Tears tab

Help us improve GuitareTab! Take a short survey!
-------------------------------------------------------------------------------
	         Follow the Tears - Heaven and Hell
-------------------------------------------------------------------------------
Tabbed by:ironmanben
Email:superclam500@yahoo.com

| /  slide up
| \  slide down
| h  hammer-on
| p  pull-off
| ~  vibrato
| +  harmonic
| x  Mute note


Tuning:It's Drop D tuning, exept in really low #C, so I would recommend tuning the E 
to #C, and then tuning by ear from there.

Intro x14
e|-----------------|---------|
B|-----------------|---------|
G|-----------------|---9~----|
D|-2-22---2---2----|---9~----|
A|-2-22-0-2-4-2--- |---7~----|
E|-0-00-0-0-2-0----|---------|
                   Do this only
                   the 5th, 9th
                   12th, and 13th
                   and 14th times
Riff 1 x1
e|--------------------------|
B|--------------------------|
G|--------------------------|
D|--------------------------|
A|------7----7--8-7---------|
E|-0~-0---6~--6-----6~------|
More of Riff 1
e|---------------------------|
B|---------------------------|
G|---------------------------|
D|---------------------------|
A|------7----7--7-8-8-7------|
E|-0~-0---6~--6--------------|
Its still Riff 1
e|------------------------|
B|------------------------|
G|------------------------|
D|------------------------|
A|------7----7--8-7-------|
E|-0~-0---6~--6-----6~----|
Still Riff 1
e|------------------------|
B|------------------------|
G|------------------------|
D|------------------------|
A|------7----7--7--8------|
E|-0~-0---6~--6--6--6~----|

(Riff 1 ends HERE)
See, its all 1 big riff, but the parts are a tad different each time.

Riff 2 x6
(Riff 2 Part 1)
Palm Muted
e|------------------------------|
B|------------------------------|
G|------------------------------|
D|------------------------------|
A|--5-------7-------5---5-7-----|
E|--3-000-0-5-000-0-3-0-3-5-----|

(Riff 2 part 2)
Palm Muted
e|---------------|---------------|
B|---------------|---------------|
G|---------------|---------------|
D|---------------|---------------|
A|--5-------7----|---7--6--------|
E|--3-000-0-5-000|-0--6--6-5h6---|
                 |Don't mute
(Riff 2 ends here.)
The first two times the complete riff 2 is played, it plays nomally.  But on the 3rd and 
times, Part 1 repeats twice instead of going to part 2.  (During the 4th and 6th 
full riff 2 is played.)

Pre-Chorus x1
e|--------------------------------|
B|--------------------------------|
G|--------------------------------|
D|--------------------------------|
A|-10~~-10-12-10-9-10~------------|
E|-8~~--8--10-8--7-8~--10~-7-8----|
This may be hard to hear, but it's there, trust me.

Chorus x2
e|--------------------------------------------------------------------------|
B|--------------------------------------------------------------------------|
G|--------------------------------------------------------------------------|
D|--------------------------------------------------------------------------|
A|-2~-9-8----------------2~-8-7---------------------------------------------|
E|-0~-7-6-6^-5-3-5-6^~---0~-6-5---3-0-5^~-----------------------------------|
      at the fret 6 bends, only bend very slightly

then go back to riff two, and play it through as you did the first time.  Then,do this:

pre-chorus x1
chorus x4

then, do this:
riff 3
e|--------------------------------------------------------------------------|
B|--------------------------------------------------------------------------|
G|--------------------------------------------------------------------------|
D|----9-9--9--9--9~------14-14--14--14--14~---------------------------------|
A|----9-9--9--9--9~------14-14--14--14--14~---------------------------------|
E|-7~-7-7--7--7--7~---12~12-12--12--12--12~---------------------------------|
still riff 3
e|---------------------------------------------------------------------------|
B|---------------------------------------------------------------------------|
G|---------------------------------------------------------------------------|
D|----9-9--9--9--9~------14-14--14--14-11-12---------------------------------|
A|----9-9--9--9--9~------14-14--14--14---------------------------------------|
E|-7~-7-7--7--7--7~---12~12-12--12--12---------------------------------------|
still riff 3
e|--------------------------------------------------------------------------|
B|--------------------------------------------------------------------------|
G|--------------------------------------------------------------------------|
D|----9-9--9--9--9~------14-14--14--14--14~---------------------------------|
A|----9-9--9--9--9~------14-14--14--14--14~---------------------------------|
E|-7~-7-7--7--7--7~---12~12-12--12--12--12~---------------------------------|

pre-chorus 2 x1
e|--------------------------------------------------------------------------|
B|--------------------------------------------------------------------------|
G|--------------------------------------------------------------------------|
D|--------------------------------------------------------------------------|
A|-15-15-15-15-15-15-15-17-16-15-15-15-15-15-15-15-15-----------------------|
E|-13-13-13-13-13-13-13-15-14-13-13-13-13-13-13-13-13-----------------------|

repeat chorus x2
riff 2 x3

solo
e|--7^-----------------------12--10----12--10--12----------------------------|
B|-10^--10-10-10-10-8-7-------------12-------12------------------------------|
G|----------------------9^~--------------------------------------------------|
D|---------------------------------------------------------------------------|
A|---------------------------------------------------------------------------|
E|---------------------------------------------------------------------------|
That's all of the solo that I have figured out right now.

pre chorus x2
chorus x8 (fade out)

Congratulations.  You've just played Follow the Tears!

============================================================================
Related for Follow The Tears tab