Song name
# A B C D E F G H I J K L M N O P Q R S T U V W X Y Z

Heaven And Hell - Breaking Into Heaven tab

Intro
d#|-----------------------------|--------------------------|-----|
A#|-----------------------------|--------------------------|-----|
F#|-----------------------------|--------------------------|-----|
C#|-2--4--5--9--8-----4---7--3--|-2--4--5--9--8--4--7--3---|-2---|
G#|-2--4--5--9--8-----4---7--3--|-2--4--5--9--8--4--7--3---|-2---|
D#|-0--2--3--7--6-----2---5--1--|-0--2--3--7--6--2--5--1---|-0---|

Verse
d#|-------------------------------------------------------|----------------|
A#|-------------------------------------------------------|-fill-----------|
F#|-------9---------9--9--------------9---------9--9------|----------5-4---|
C#|-5-2-2-9---5-2-2-9--9-7-6-5--5-2-2-9---5-2-2-9--9-7-6--|------2-3-------|
G#|-5-2-2-7---5-2-2-7--7-7-6-5--5-2-2-7---5-2-2-7--7-7-6--|--2-3-----------|
D#|-3-0-0-----3-0-0------5-4-3--3-0-0-----3-0-0------5-4--|----------------|

Pre-Chorus
d#|--------------------------|---------------------|
A#|--------------------------|---------------------|
F#|--------------------------|---------------------|
C#|-7----5----3--------------|-7----5----3----2----|
G#|-7----5----3-----3--2-----|-7----5----3----2----|
D#|-5----3----1-----------3--|-5----3----1----0----|

d#|--------------------------|-------------------------------------------|
A#|--------------------------|-----------pm----------------------------|-|
F#|--------------------------|-------------------------------------------|
C#|-7----5----3--------------|-7----5----4-4-4-4-4-4-4-4-3-3-3-3-3-3-3-3-|
G#|-7----5----3-----3--2-----|-7----5----4-4-4-4-4-4-4-4-3-3-3-3-3-3-3-3-|
D#|-5----3----1-----------3--|-5----3----2-2-2-2-2-2-2-2-1-1-1-1-1-1-1-1-|

Chorus                         |1,3           |2      |3
d#|------------------------------------------|-------|---------|
A#|------------------------------------------|-------|---------|
F#|------------------------------------5-4---|-------|---------|
C#|-2--9--2--9--7-8---2--9--2------2-3-------|-------|---------|
G#|-2--7--2--7--7-8---2--7--2--2-3-----------|-3-2~--|-3-2-0-2-|
D#|-0-----0-----5-6---0-----0----------------|-------|---------|
Tap to rate this tab
# A B C D E F G H I J K L M N O P Q R S T U V W X Y Z