Song name
# A B C D E F G H I J K L M N O P Q R S T U V W X Y Z

Heaven And Hell - Bible Black tab

Artist:    Black Sabbath
Song:      Bible Black
Album:     The Devil You Know
Tabbed by: xHellbound


Are you reading from the Bible Black?


~  - vibrato
h  - hammer on
p  - pull off
\  - slide
b  - full bend
pb - prebend
br - bend & release



Acoustic

|--------------------|-----------------|
|--------------------|-----------------|
|--------------------|--------0-2------|
|------2---1---------|------2-----4-0--|
|----2---2---2-------|----2------------|
|--0-----------3-2~--|--0--------------|


|---------------------|-----------0--|
|---------------------|-----------0--|
|------0-------0------|--------0--0--|
|----0---0---0--------|------2----2--|
|---------------------|----2------2--|
|--3-------2-----2h3--|--0--------0--|



Solo

|--------------------------------------------|
|-----------15-------------------------------|
|--pb14r-------12-14----12-11----------------|
|-----------------------------12------12\14--|
|---------------------------------14---------|
|--------------------------------------------|

|---------------|--17b--17b-17-15-17br-p15-----|
|--17p15----17--|--------------------------17--|
|--------16-----|------------------------------|
|---------------|------------------------------|
|---------------|------------------------------|
|---------------|------------------------------|

|--------------------22b--|
|--22b--22b-22br-p20------|
|-------------------------|
|-------------------------|
|-------------------------|
|-------------------------|

Tap to rate this tab
# A B C D E F G H I J K L M N O P Q R S T U V W X Y Z