Song name
# A B C D E F G H I J K L M N O P Q R S T U V W X Y Z

Heaven And Hell - Rock And Roll Angel tab

Just Intro and verse, it'll be a while before I have time to try at the whole thing.
Intro
D#|--------------------------|1,3------------|-|2------------|-|4------------|
A#|------------------------------------------|---------------|---------------|
F#|---9/11---11/12---12/14---14/17---19--19--|-14--14---7--7-|-14--14--------|
C#|------------------------------------------|---------------|----------12-10|
G#|---7/9----9-/10---10/12---12/15---17--17--|-12--12---5--5-|-12--12---12-10|
C#|-0------0-------0-------0-------0---------|--------0------|--------0-12-10|

Verse
D#|---------------------|fill-1----|-|fill-2-|-|fill-3---|-fill-4---|
A#|--------------------------------|---------|-----------|----------|
F#|-5/7---------5/7---------7-9-10-|---------|-----------|-----7-5--|
C#|-5/7---------5/7---------7-9-10-|---------|-----------|-----7-5--|
G#|-3/5---------3/5---------5-7-8--|---------|-----------|-----5-3--|
C#|-----0-0-0-0-----0-0-0-0--------|--5-4-3~-|-5-4-3-4-3-|-0-0------|
Tap to rate this tab
# A B C D E F G H I J K L M N O P Q R S T U V W X Y Z