Song name
# A B C D E F G H I J K L M N O P Q R S T U V W X Y Z

Heaven And Hell - Atom And Evil tab

-------------------------------------------------------------------------------
  Atom & Evil - Heaven & Hell 
-------------------------------------------------------------------------------
Tabbed by:  P.Mather
Email:  logix992000@yahoo.co.uk



Tuning:D#,G#,C#,F#,A#,D#


INTRO

D#|-------------|---------------|-------------|---------------|
A#|-------------|---------------|-------------|---------------|
F#|-------------|---------------|-------------|---------------|
C#|---7-5-4-----|---7-5-4-------|---7-5-4-----|---7-5-4-------|  Repeat
G#|-2-5-3-2-4-3-|-2-5-3-2-4-3-5-|-2-5-3-2-4-3-|-2-5-3-2--4-3-5|
D#|-0-------2-1-|-0-------2-1-3-|-0-------2-1-|-0--------2-1-3|


VERSE 1
D#|-------------|--------------|---------------|---------------|
A#|-------------|--------------|---------------|---------------|
F#|--9--8--7--6-|--9--8--7--6--|---------------|---------------|
C#|--9--8--7--6-|--9--8--7--6--|---------------|---------------|
G#|--7--6--5--4-|--7--6--5--4--|---------------|---------------|
D#|--0----------|--0-----------|--0-0-0-232-0--|--0-0-0-0235-3-|




D#|-------------|--------------|---------------|---------------|
A#|-------------|--------------|---------------|---------------|
F#|--9--8--7--6-|--9--8--7--6--|---------------|---------------|
C#|--9--8--7--6-|--9--8--7--6--|---------------|-----------7-5-|
G#|--7--6--5--4-|--7--6--5--4--|---------------|-----------7-5-|
D#|--0----------|--0-----------|--0-0-0-232-0--|--0-0-0-0235-3-|


D#|--------------|
A#|--------------|
F#|--------------|
C#|--------------|
G#|--5-4-2-4-2---|
D#|--3-2-0-2-0---|


VERSE 2

Guitar 1

D#|---------------------|
A#|---------------------|
F#|---9-----7-----5-----|  repeat
C#|---9-----7-----5-----|
G#|---7-----5-----3-----|
D#|---0-----------------|


Guitar 2

D#|-------------------|
A#|-------------------|
F#|---4---------------|
C#|-----5-7-4-5---4---| repeat
G#|-------------7---5-|
D#|-------------------|


solo

riff under solo

D#|---------------------------|
A#|---------------------------|
F#|------------7--------------|
C#|--7----3----7----6----7----|
G#|--7----3----5----6----7----|
D#|--5----1---------4----5----|


verse 3 same as 2

outro,  same as intro except for this every now an again.

|-----------------------|
|-----------------------|
|-----------------------|
|-----7-6-5-------------|
|--2--5-4-3--5-4-3--2---|
|--0---------3-2-1--0---|

 
| /  slide up
| \  slide down
| h  hammer-on
| p  pull-off
| ~  vibrato
| +  harmonic
| x  Mute note
===============================================================================
Tap to rate this tab
# A B C D E F G H I J K L M N O P Q R S T U V W X Y Z