Guitaretab - guitar tabs
Song name
# A B C D E F G H I J K L M N O P Q R S T U V W X Y Z

Heaven And Hell - Eating The Cannibals tab

Heaven and Hell-Eating The Cannibals
The Devil You Know (2009) 
Transcribed by: playinbass1432
Email: playinbass1432@hotmail.com 

Tune down 1/2 step

Intro: 

Guitars 1 + 2 


Eb|-----------------|-----------------|-----------------|-----------------|
Bb|-----------------|-----------------|-----------------|-----------------|
Gb|-----------------|-----------------|-----------------|-----------------|
Db|-----------------|-----------------|-----------------|-----------------|
Ab|-----5---7-------|-5-----7---5-----|-----5---7-------|-5-7--/9---7-----|
Eb|-0-0-------0-0-0-|---0-0-------6-5-|-0-0-------0-0-0-|---------------0-|

Eb|-----------------|-----------------|-----------------|-----------------|
Bb|-----------------|-----------------|-----------------|-----------------|
Gb|-----------------|-----------------|-----------------|-----------------|
Db|-----------------|-----------------|-----------------|-----------------|
Ab|-----5---7-------|-5-----7---5-----|-----5---7-------|-5-7--/9---7-----|
Eb|---0-------0-0-0-|---0-0-------6-5-|-0-0-------0-0-0-|---------------0-|

Guitar Solo 1:

Guitar 3

Eb|-------------------------------------------------------------------------|
Bb|-----------------------------8---10-8b---10--------12-15p12----12--------|
Gb|-----------------------7-8-9---9-------9----14b16-----------14----12~~~~~|
Db|-------4---5---7-5-7/9---------------------------------------------------|
Ab|-7~~~----7---7-----------------------------------------------------------|
Eb|-------------------------------------------------------------------------|

Eb|------------------------------------------------------------------|
Bb|-------12-15b17---15-15b17~~~~~\\\---15b17---15-15b17-15b17~~~~~--|
Gb|-14b16------------------------------------------------------------|
Db|------------------------------------------------------------------|
Ab|------------------------------------------------------------------|
Eb|------------------------------------------------------------------|

Eb|----12------------------------------------------------------------|
Bb|-15----15-12-11-12------------------------------------------------|
Gb|-------------------15p14-12-14------------------------------------|
Db|-------------------------------14-12-14---------------------------|
Ab|----------------------------------------12~~~~~~~~~~~~~~~~~~~~~~--|
Eb|------------------------------------------------------------------|

Guitars 1 + 2 

Eb|-----------------|-----------------|-----------------|-----------------|
Bb|-----------------|-----------------|-----------------|-----------------|
Gb|-----------------|-----------------|-----------------|-----------------|
Db|-----------------|-----------------|-----------------|-----------------|
Ab|-----5---7-------|-5-----7---5-----|-----5---7-------|-5-7--/9---7-----|
Eb|-0-0-------0-0-0-|---0-0-------6-5-|-0-0-------0-0-0-|---------------0-|

Eb|-----------------|-----------------|-----------------|-----------------|
Bb|-----------------|-----------------|-----------------|-----------------|
Gb|-----------------|-----------------|-----------------|-----------------|
Db|-----------------|-----------------|-----------------|-------7---------|
Ab|-----5---7-------|-5-----7---5-----|-----5---7-------|-------5---------|
Eb|---0-------0-0-0-|---0-0-------6-5-|-0-0-------0-0-0-|-5-6-7-----------| 

Verse 1: 

Guitars 1 + 2 


Eb|-----------------|-----------------|-----------------|-----------------|
Bb|-----------------|-----------------|-----------------|-----------------|
Gb|-----------------|-----------------|-----------------|-----------------|
Db|-----------------|-----------------|-----------------|-----------------|
Ab|-----5---7-------|-5-----7---5-----|-----5---7-------|-5-7--/9---7-----|
Eb|-0-0-------0-0-0-|---0-0-------6-5-|-0-0-------0-0-0-|---------------0-|

                                        Db5   Eb5   F#5   Ab5   F#5   Db5 
Eb|-----------------|-----------------|-----------------|-----------------|
Bb|-----------------|-----------------|-----------------|-----------------|
Gb|-----------------|-----------------|-7-----9-----7---|-9~----6---------|
Db|-----------------|-----------------|-7-----9-----5---|-7~----4-----7---|
Ab|-----5---7-------|-5-----7---5-----|-5-----7---------|-------------5---|
Eb|---0-------0-0-0-|---0-0-------6-5-|-----------------|-----------------|


Eb|-----------------|-----------------|-----------------|-----------------|
Bb|-----------------|-----------------|-----------------|-----------------|
Gb|-----------------|-----------------|-----------------|-----------------|
Db|-----------------|-----------------|-----------------|-----------------|
Ab|-----5---7-------|-5-----7---5-----|-----5---7-------|-5-7--/9---7-----|
Eb|-0-0-------0-0-0-|---0-0-------6-5-|-0-0-------0-0-0-|---------------0-|
 
                                        F#5   F5    Eb5   Ab5   F#5   F5 
Eb|-----------------|-----------------|-----------------|-----------------|
Bb|-----------------|-----------------|-----------------|-----------------|
Gb|-----------------|-----------------|-----------------|-----------------|
Db|-----------------|-----------------|-5-----4-----2---|-7-----5-----4---|
Ab|-----5---7-------|-5-----7---5-----|-5-----4-----2---|-7-----5-----4---|
Eb|---0-------0-0-0-|---0-0-------6-5-|-3-----2-----0---|-5-----3-----2---|

    A5    Ab5   F#5   Bb5 
Eb|-----------------|-----------------|
Bb|-----------------|-----------------|
Gb|-----------------|-----------------|
Db|-8-----7-----5---|-9---------------|
Ab|-8-----7-----5---|-9---------------|
Eb|-6-----5-----3---|-7---------------|

Guitar Solo 2: 

Guitar 3


Eb|-9p7p5---|
Bb|-------5-|
Gb|---------|
Db|---------|    [ Tab from: http://www.guitaretab.com/h/heaven-and-hell/187901.html ]
    F5                Db5               Bb5               B5    F#5   B5
Eb|-----------------|-----------------|-----------------|-----------------|
Bb|-----------------|-----------------|-----------------|-----------------|
Gb|-----------------|-7---------------|-----------------|-----------------|
Db|-4---------------|-7---------------|-9---------------|-8-----------5---|
Ab|-4---------------|-5---------------|-9---------------|-8-----------3---|
Eb|-2---------------|-----------------|-7---------------|-6---------------|

    F5                Db5               Bb5               B5    F#5   
Eb|-----------------|-----------------|-----------------|-----------------|
Bb|-----------------|-----------------|-----------------|-----------------|
Gb|-----------------|-7---------------|-----------------|-----------------|
Db|-4---------------|-7---------------|-9---------------|-5---------------|
Ab|-4---------------|-5---------------|-9---------------|-3-----5---------|
Eb|-2---------------|-----------------|-7---------------|-------3---------|

    F5                E5      C5        Eb5               D5      Bb5
Eb|-----------------|-----------------|-----------------|-----------------|
Bb|-----------------|-----------------|-----------------|-----------------|
Gb|-6---------------|-5---------------|-----------------|-----------------|
Db|-4---------------|-3-------6-------|-9---------------|-8---------------|
Ab|-----------------|---------4-------|-7---------------|-6-------9-------|
Eb|-----------------|-----------------|-----------------|---------7-------|

    Db5               C5      Ab5       B              
Eb|-----------------|-----------------|-----------------|-----------------|
Bb|-----------------|-----------------|-----------------|-----------------|
Gb|-----------------|-----------------|-----------------|-----------------|
Db|-7---------------|-6-------7-------|-5---------------|-----------------|
Ab|-5---------------|-4-------7-------|-3---------------|-----------------|
Eb|-----------------|-4-------5-------|-3---------------|-----------------|

    B
Eb|-----------------|-----------------|
Bb|-----------------|-----------------|
Gb|-----------------|-----------------|
Db|-5-5-5-5-5-5-5-5-|-5-5-5-5-5-5-5-5-|
Ab|-3-3-3-3-3-3-3-3-|-3-3-3-3-3-3-3-3-|
Eb|-3-3-3-3-3-3-3-3-|-3-3-3-3-3-3-3-3-|

Guitar Solo 3: 

Guitar 3 

                   
Eb|---------------------------------------------------------------|
Bb|----17---------------------------------------------------------|
Gb|-16b18---------14-16b18r16-14---16h18p16-14-16-14----16-14~~~~~|
Db|--------------------------------------------------16-----------|
Ab|---------------------------------------------------------------|
Eb|---------------------------------------------------------------|

Eb|-17b19---(b20)------17pb20r17-14--------------------|
Bb|---------------------------------17-17b19-17b19~~~~~|
Gb|----------------------------------------------------|
Db|----------------------------------------------------|
Ab|----------------------------------------------------|
Eb|----------------------------------------------------|

Eb|-------------------------------------------------------------------------|
Bb|-19-17----16-------17----------------------------------------------------|
Gb|-------18----18-17----17-16-14-16----16-14-------------------------------|
Db|----------------------------------16-------16-14-------16-14-------------|
Ab|-------------------------------------------------14/16-------16-14----14-|
Eb|-------------------------------------------------------------------16----|

                                                                 Hold bend 
Eb|----------------------------------17b20---r17-14-17----------------------|
Bb|----------------------------14-19------------------17-17b19-17-17-17-17~~|
Gb|----------------------14-16----------------------------------------------|
Db|----------------14-16----------------------------------------------------|
Ab|-12----14-15-16----------------------------------------------------------|
Eb|----14-------------------------------------------------------------------|
                                    
                                   /     x4      \
Eb|---------14-----------------14--14h17p14---------|
Bb|-17b19------14-17-17b19~~~---------------17b19---|
Gb|-------------------------------------------------|
Db|-------------------------------------------------|
Ab|-------------------------------------------------|
Eb|-------------------------------------------------|

Eb|--------------------------------------------------------|
Bb|-17-----------------------------------------------------|
Gb|----18-17-18---16-14----14-16-14b----16-14----14~~~~~~~~|
Db|---------------------16-----------16-------16-----------|
Ab|--------------------------------------------------------|
Eb|--------------------------------------------------------|

Eb|--------------------------------------|
Bb|--------8---10-8b---------------------|
Gb|-/9-------9-------9-7-9-9-7---7~~~~~~~|
Db|----------------------------9---------|
Ab|--------------------------------------|
Eb|--------------------------------------|

Eb|--------------------------------------------------|
Bb|-------------12-15-12-----------------------------|
Gb|-12-14-14b16----------15-14-12-14pb16r14-12-14b16-|
Db|--------------------------------------------------|
Ab|--------------------------------------------------|
Eb|--------------------------------------------------|

Eb|---------------------------------------------------|
Bb|---------------------------------------------------|
Gb|-14b16~~~~~--14b16r14-12----14-12------------------|
Db|-------------------------14-------14-12----14-12---|
Ab|----------------------------------------14---------|
Eb|---------------------------------------------------|

Eb|-------------------------------------------------------------------------|
Bb|-------------------------------------------------------------------12-12-|
Gb|-------------------------------------------------12----12-14-14b16-------|
Db|-14-12----------------------------------12-14-14----14-------------------|
Ab|---------13---12-10---10--12~~~~~-12-14----------------------------------|
Eb|-------------------------------------------------------------------------|

Eb|------------------------------------------------|
Bb|-15-12-------------12---------------------------|
Gb|-------14b16r14-12----14-12----14---12~~~~~~~~~~|
Db|----------------------------14----14------------|
Ab|------------------------------------------------|
Eb|------------------------------------------------|

Guitars 1 + 2 

    F                                 
Eb|-----------------|-----------------|
Bb|-----------------|-----------------|
Gb|-----------------|-----------------|
Db|-4-------4-----4-|---4-----4/5\4-2-|
Ab|-4-------4---2-4-|---4-----4/5\4-2-|  x8
Eb|-2-------2---0-2-|---2---0-2/3\2-0-|

    B                 Bb5               F#5               Ab5 
Eb|-----------------|-----------------|-----------------|-----------------|
Bb|-----------------|-----------------|-----------------|-----------------|
Gb|-----------------|-4---------------|-----------------|-----------------|
Db|-5---------------|-4---------------|-5---------------|-7---------------|
Ab|-3---------------|-2---------------|-5---------------|-7---------------|
Eb|-3---------------|-----------------|-3---------------|-5---------------|

    B5                Db5               F#5               Ab5 
Eb|-----------------|-----------------|-----------------|-----------------|
Bb|-----------------|-----------------|-----------------|-----------------|
Gb|-5---------------|-7---------------|-----------------|-----------------|
Db|-5---------------|-7-----------4---|-5-----------5---|-7-7-7-7-7-7-7-7-|
Ab|-3---------------|-5-----------4---|-5-----------5---|-7-7-7-7-7-7-7-7-|
Eb|-----------------|-------------2---|-3-----------3---|-5-5-5-5-5-5-5-5-|

Repeat last bar three times

    Ab5       Db5 
Eb|-----------------|
Bb|-----------------|
Gb|-----------7-----|
Db|-7-7-7-7-7-7-----|
Ab|-7-7-7-7-7-5-----|
Eb|-5-5-5-5-5-------|

Post Solo Turnaround:

Guitars 1 + 2 repeat Guitar Solo 1 Riff, then; 

Repeat Verse 1 Riff

Guitar 3 does stupid pentatonic bullshit over aforementioned riff with wah
effect till ending. I am far too lazy to tab it now. I will include it in
a future update. 

Eb|---|
Bb|---|
Gb|-9-|
Db|-9-|
Ab|-7-|
Eb|---|


Related for Eating The Cannibals tab
Advertisement will be closed in 10 seconds