Song name
# A B C D E F G H I J K L M N O P Q R S T U V W X Y Z

Heaven And Hell - Eating The Cannibals tab

Heaven and Hell-Eating The Cannibals
The Devil You Know (2009) 
Transcribed by: playinbass1432
Email: playinbass1432@hotmail.com 

Tune down 1/2 step

Intro: 

Guitars 1 + 2 


Eb|-----------------|-----------------|-----------------|-----------------|
Bb|-----------------|-----------------|-----------------|-----------------|
Gb|-----------------|-----------------|-----------------|-----------------|
Db|-----------------|-----------------|-----------------|-----------------|
Ab|-----5---7-------|-5-----7---5-----|-----5---7-------|-5-7--/9---7-----|
Eb|-0-0-------0-0-0-|---0-0-------6-5-|-0-0-------0-0-0-|---------------0-|

Eb|-----------------|-----------------|-----------------|-----------------|
Bb|-----------------|-----------------|-----------------|-----------------|
Gb|-----------------|-----------------|-----------------|-----------------|
Db|-----------------|-----------------|-----------------|-----------------|
Ab|-----5---7-------|-5-----7---5-----|-----5---7-------|-5-7--/9---7-----|
Eb|---0-------0-0-0-|---0-0-------6-5-|-0-0-------0-0-0-|---------------0-|

Guitar Solo 1:

Guitar 3

Eb|-------------------------------------------------------------------------|
Bb|-----------------------------8---10-8b---10--------12-15p12----12--------|
Gb|-----------------------7-8-9---9-------9----14b16-----------14----12~~~~~|
Db|-------4---5---7-5-7/9---------------------------------------------------|
Ab|-7~~~----7---7-----------------------------------------------------------|
Eb|-------------------------------------------------------------------------|

Eb|------------------------------------------------------------------|
Bb|-------12-15b17---15-15b17~~~~~\\\---15b17---15-15b17-15b17~~~~~--|
Gb|-14b16------------------------------------------------------------|
Db|------------------------------------------------------------------|
Ab|------------------------------------------------------------------|
Eb|------------------------------------------------------------------|

Eb|----12------------------------------------------------------------|
Bb|-15----15-12-11-12------------------------------------------------|
Gb|-------------------15p14-12-14------------------------------------|
Db|-------------------------------14-12-14---------------------------|
Ab|----------------------------------------12~~~~~~~~~~~~~~~~~~~~~~--|
Eb|------------------------------------------------------------------|

Guitars 1 + 2 

Eb|-----------------|-----------------|-----------------|-----------------|
Bb|-----------------|-----------------|-----------------|-----------------|
Gb|-----------------|-----------------|-----------------|-----------------|
Db|-----------------|-----------------|-----------------|-----------------|
Ab|-----5---7-------|-5-----7---5-----|-----5---7-------|-5-7--/9---7-----|
Eb|-0-0-------0-0-0-|---0-0-------6-5-|-0-0-------0-0-0-|---------------0-|

Eb|-----------------|-----------------|-----------------|-----------------|
Bb|-----------------|-----------------|-----------------|-----------------|
Gb|-----------------|-----------------|-----------------|-----------------|
Db|-----------------|-----------------|-----------------|-------7---------|
Ab|-----5---7-------|-5-----7---5-----|-----5---7-------|-------5---------|
Eb|---0-------0-0-0-|---0-0-------6-5-|-0-0-------0-0-0-|-5-6-7-----------| 

Verse 1: 

Guitars 1 + 2 


Eb|-----------------|-----------------|-----------------|-----------------|
Bb|-----------------|-----------------|-----------------|-----------------|
Gb|-----------------|-----------------|-----------------|-----------------|
Db|-----------------|-----------------|-----------------|-----------------|
Ab|-----5---7-------|-5-----7---5-----|-----5---7-------|-5-7--/9---7-----|
Eb|-0-0-------0-0-0-|---0-0-------6-5-|-0-0-------0-0-0-|---------------0-|

                                        Db5   Eb5   F#5   Ab5   F#5   Db5 
Eb|-----------------|-----------------|-----------------|-----------------|
Bb|-----------------|-----------------|-----------------|-----------------|
Gb|-----------------|-----------------|-7-----9-----7---|-9~----6---------|
Db|-----------------|-----------------|-7-----9-----5---|-7~----4-----7---|
Ab|-----5---7-------|-5-----7---5-----|-5-----7---------|-------------5---|
Eb|---0-------0-0-0-|---0-0-------6-5-|-----------------|-----------------|


Eb|-----------------|-----------------|-----------------|-----------------|
Bb|-----------------|-----------------|-----------------|-----------------|
Gb|-----------------|-----------------|-----------------|-----------------|
Db|-----------------|-----------------|-----------------|-----------------|
Ab|-----5---7-------|-5-----7---5-----|-----5---7-------|-5-7--/9---7-----|
Eb|-0-0-------0-0-0-|---0-0-------6-5-|-0-0-------0-0-0-|---------------0-|
 
                                        F#5   F5    Eb5   Ab5   F#5   F5 
Eb|-----------------|-----------------|-----------------|-----------------|
Bb|-----------------|-----------------|-----------------|-----------------|
Gb|-----------------|-----------------|-----------------|-----------------|
Db|-----------------|-----------------|-5-----4-----2---|-7-----5-----4---|
Ab|-----5---7-------|-5-----7---5-----|-5-----4-----2---|-7-----5-----4---|
Eb|---0-------0-0-0-|---0-0-------6-5-|-3-----2-----0---|-5-----3-----2---|

    A5    Ab5   F#5   Bb5 
Eb|-----------------|-----------------|
Bb|-----------------|-----------------|
Gb|-----------------|-----------------|
Db|-8-----7-----5---|-9---------------|
Ab|-8-----7-----5---|-9---------------|
Eb|-6-----5-----3---|-7---------------|

Guitar Solo 2: 

Guitar 3


Eb|-9p7p5---|
Bb|-------5-|
Gb|---------|
Db|---------|    
Tap to rate this tab
 
# A B C D E F G H I J K L M N O P Q R S T U V W X Y Z