Song name
# A B C D E F G H I J K L M N O P Q R S T U V W X Y Z

Heaven And Hell - Fear tab

|---------------------------------------------------------|
|---------------------------------------------------------|
|---------------------------------------------------------|
|----------------------------------------------------9----| X3
|---7-8-7----7-----7--10--7-8----7-8-7----7-----7--8---8--|
|-0-------10----0--------------0-------10----0------------|

|---------------------------------------------------------|
|---------------------------------------------------------|
|---------------------------------------------------------|
|-----------------10-------9-------7------5---------------|
|---7-8-7---------10-------9-------7------5---------------|
|-0-------(8)-(8)-8----(7)-7---(5)-5--(3)-3---------------|

Repeat


|-------------------------------------------------------|
|-------------------------------------------------------|
|9--------------------12--------------------------------|
|9--------------------12--------------------------------|
|7--------------------10------5-7-5---5-7---------------|
|--(0)(0)(0}(0)(0)-------(0)--------8-----8-5-----------|

|-------------------------------------------------------|
|-------------------------------------------------------|
|9--------------------12--------------------------------|
|9--------------------12-----------7--9--10---9--7------|
|7--------------------10-----------7--9--10---9--7------|
|--(0)(0)(0}(0)(0)-------(0)(0)(0)-5--7--8----7--5------|
Tap to rate this tab
# A B C D E F G H I J K L M N O P Q R S T U V W X Y Z