Song name
# A B C D E F G H I J K L M N O P Q R S T U V W X Y Z

Heaven And Hell - Bible Black tab

Hey guys this is my first tab so I think its all correct. This song is mostely 
acoustic, but there are 3 guitars and a bass. The third guitar is an electric.

Intro, First Riff.

------------------------------------------------------------------------|
------------------------------------------------------------------------|
-----------------------0-2-----------0-------0-------------0--0---------|
-----2---1-----------2-----4-0-4---0---0---0---0---------2----2---------| x2
---2---2---2-------2-----------------------------------2------2---------|
-0-----------3-2-0---------------3-------2--------2h3-0-------0---------|
               ~

Electric fill at the second time you play intro.
                                                           
-8---9----8----9-----------------------------------12-10----12---|
-----------------7-9---8-7-------------------------------12------|
---------------------------7--------9----------------------------|
--------------------------------9--------------------------------|
-----------------------------------------------------------------|
-----------------------------------------------------------------|


Second acustic part. All three guitars play together here.
-------------------------------------------------------------------------|
-------------------------------------0-------------------------------0---|
----------0--------------------------0-----------0-------------------0---|
--------0---0-------7-------------3--2---------0---0-------7---------2---|
------------------7---7---------2----2-------------------7---7-------2---|
--0-2-3--------7-5-------3-2--0------0---0-2-3-------7-5--------3-2--0---|


Electric plays with above tab. Second riff, after a bass scale.

------0-----------0---------0------------0-------------0---0----|
---------0-6-0-3---------------0-6-0-3-------------0-3----------|
----4---------------------4--------------------4----------------|
--2---------------------2--------------------2------------------| 
----------------------------------------------------------------|
----------------------------------------------------------------|


Guitar 2 played with both above tabs and a drum solo.

-------------------------------------|
-------------------------------------|
-------------------------------------|
--9--9--9--9--9----------------------| x2
--7--7--7--7--7----7----7------------|
--0--0--0--0--0------8----7---6h5----|


Electric bridge, with overdrive and reverb.

--------------------------------------------------|
--------------------------------------------------|
--------------------------------------------------|
--------7/8/7----7/8----------7/8/7----5----------|
--7-----5/6/5----5/6----7-----5/6/5----3--5-------| 
--5---------------------5-----------------3-------|

Verse
"whats this world i see, ..."

-------------------------------------|
-------------------------------------|
-------------------------------------| x2
-------------------------------------| 
-------------------------------------|
-3h5-5-5-3h5-5-5-3h5-5-5-3-3-0-0-----|


------------------------------------------|
------------------------------------------|
------------------------------------------| x2
------------------------------------------| 
-5-6-5-------------------------3-5-3------|
-------3h5-5-5-3h5-5-5-3h5-5-5------------|

and...
"let me go, iv seen religion..."
-----------------------------------|
-----------------------------------|
--7---x-7------7---x-7---7---5-----|
--7---x-7------7---x-7---7---5-----|
--5---x-5------5---x-5---5---3-----|
-----------------------------------|


Verse
"whats this world i see, ..."

-------------------------------------|
-------------------------------------|
-------------------------------------| x2
-------------------------------------| 
-------------------------------------|
-3h5-5-5-3h5-5-5-3h5-5-5-3-3-0-0-----|


Electric guitar solo while acoustic plays:
-------------------------------------------------------------------------|
-------------------------------------0-------------------------------0---|
----------0--------------------------0-----------0-------------------0---|
--------0---0-------7-------------3--2---------0---0-------7---------2---|
------------------7---7---------2----2-------------------7---7-------2---|
--0-2-3--------7-5-------3-2--0------0---0-2-3-------7-5--------3-2--0---|


--7h9---------------------7h9--10h11--12h15--19--21--21p19-----------------|
--------7---------------7-----------------------------------17-------------|
----------7-----------7----------------------------------------17----------|
------------7-------7---------------------------------------------17-------|
--------------7---7--------------------------------------------------17----|
----------------5-------------------------------------------------------15-|


Last acoutic part till end intro fade of song.
------------------------------------------|
------------------------------------------|
--------9---10---7-10-------9---10--7-----|
------7---7----7----------7---7-----5-----| x2
---0-------------------0------------------|
------------------------------------------|

Fade out at the end.
--------------------------------|
--------------------------------|
-----------------------0---0----|
-----2---1-----------2-----2----|
---2---2---2-------2-------2----|
-0-----------3-2-0---------0----|
               

Good luck and keep playing.
Tap to rate this tab
# A B C D E F G H I J K L M N O P Q R S T U V W X Y Z