Song name
# A B C D E F G H I J K L M N O P Q R S T U V W X Y Z

Heaven Shall Burn - Like A Thousand Suns tab

intro:

-------------------------------------------------------------------|
-------------------------------------------------------------------|
-------------------------------------------------------------------|
-------------------------------------------------------------------|6times
----------------------------3----3---------------------------------|
----0-3-1-0-6-5-3-5-0-3-1-0---6-5----------------------------------|

verse1:

--------------------------------------------------------------------|
--------------------------------------------------------------------|
--------------------------------------------------------------------|
--------------------------------------------------------------------|
------------88855577--------33335555--------88855577--333555777-----|
----00000000--------00000000--------00000000--------00--------------|
    --------        --------        --------        ----------------|

--------------------------------------------------------------------|
--------------------------------------------------------------------|
--------------------------------------------------------------------|
--------------------------------------------------------------------|
------------88855577--------33335555--------88855577--777888101010--|
----00000000--------00000000--------00000000--------00--------------|
    --------        --------        --------        ----------------|
verse2:

-------------------------------------------------------------------|
-------------------------------------------------------------------|
-------------------------------------------------------------------|
-------------------------------------------------------------------|2 times
----0---0---0--3h5-1----1h3-0--------------5h7-3----3h5------------|
----0-000-000--3h5-1--0-1h3-0-000000000000-5h7-3--0-3h5------------|
      --  --          -       ------------        -
chorus:

-------------------------------------------------------------------|
-------------------------------------------------------------------|
-------------------------------------------------------------------|
------------------------------555----------------------------------|
----5-777888777555h7-3---5-777---888777h8-3---5-777888777555h7-3---|
-------------------------------------------------------------------|
    - -----------        - -----------        - -----------

--------------------------------------------------------------------|
--------------------------------------------------------------------|
--------------------------------------------------------------------|
---------555--------------------------------------------------------|
----5-777---888777h8------------------------------------------------|
---------------------5h7-3h5----------------------------------------|
    - --------------------------------------------------------------|
Tap to rate this tab
# A B C D E F G H I J K L M N O P Q R S T U V W X Y Z