Song name
# A B C D E F G H I J K L M N O P Q R S T U V W X Y Z

Heavens Basement - Nothing Left To Lose tab

-------------------------------------------------------------------------------
                             Nothing Left to Lose - Heavens Basement
-------------------------------------------------------------------------------
Tabbed by: John Posemato
E-mail: Jposemato2@gmail.com
Tuning:Eb

Awesome song by an awesome band. Didn't quite finish the solo's yet but I 
will come back to it. If anyone else figures any of them out email me and I'd 
be happy to credit you in the tab for them. Any concerns or questions feel 
free to email me.

 Intro/Verses  (The pickslide is only on the intro)
e|--------------------------------------------------------------------------|
B|--------------------------------------------------------------------------|
G|-4--////-----------4------7-4--------4------7-----------------------------|
D|-4--////-----------4----5-7-4----5-7-4----5-7-----------------------------|
A|-2--////pickslide--2----5-5-2----5-7-2----5-5---------5----------7--------|
E|------------------------3--------3-5------3----3--3-3---3-5--5-5---5------|

  Solo 1 (Didn't do this yet)
e|--------------------------------------------------------------------------|
B|--------------------------------------------------------------------------|
G|--------------------------------------------------------------------------|
D|--------------------------------------------------------------------------|
A|--------------------------------------------------------------------------|
E|--------------------------------------------------------------------------|
  
  Slide
A|-1/15-|
E|-1/15-|
  *Just a fast slide down the fret connecting the first verse to first chorus

  Chorus 
e|--------------------------------------------------------------------------|
B|--------------------------------------------------------------------------|
G|-7-7-7-7-4-4-4-4---------4-4-----4-4-4-4-7-7-7-7---------4-4--------------|
D|-7-7-7-7-4-4-4-4-5-5-5-5-4-4-7-7-4-4-4-4-7-7-7-7-5-5-5-5-4-4-7-7----------|
A|-5-5-5-5-2-2-2-2-5-5-5-5-2-2-7-7-2-2-2-2-5-5-5-5-5-5-5-5-2-2-7-7----------|
E|-----------------3-3-3-3-----5-5-----------------3-3-3-3-----5-5----------|

  Solo 2 (Also not done with this)
e|--------------------------------------------------------------------------|
B|--------------------------------------------------------------------------|
G|--------------------------------------------------------------------------|
D|--------------------------------------------------------------------------|
A|--------------------------------------------------------------------------|
E|--------------------------------------------------------------------------|
  
  Interlude (Acoustic Part. This isn't 100% right but it works.)
e|--------------------------------------------------------------------------|
B|--------------------------------------------------------------------------|
G|--------7----------4-----------------------8------------------------------|
D|------9---9------5---5----5h7p5---5------7---7----------------------------|
A|----9----------5--------5-------7------7----------------------------------|
E|--7----------3-----------------------5------------------------------------|

  Interlude Part 2
e|--------------------------------------------------------------------------|
B|--------------------------------------------------------------------------|
G|-------7------------4---------7-------------------------------------------|
D|-------9------------5---------7--------7----------------------------------|
A|-------9------------5---------5--------7----------------------------------|
E|-------7------------3------------------5----------------------------------|

  Solo 3
e|--------------------------------------------------------------------------|
B|--------------------------------------------------------------------------|
G|--------------------------------------------------------------------------|
D|--------------------------------------------------------------------------|
A|--------------------------------------------------------------------------|
E|--------------------------------------------------------------------------|

 Chorus B (Played only once after the 3rd solo
e|--------------------------------------------------------------------------|
B|--------------------------------------------------------------------------|
G|-9-----------------------4-4-----4-4-4-4-7-7-7-7---------4-4--------------|
D|-9---------------5-5-5-5-4-4-7-7-4-4-4-4-7-7-7-7-5-5-5-5-4-4-7-7----------|
A|-7---------------5-5-5-5-2-2-7-7-2-2-2-2-5-5-5-5-5-5-5-5-2-2-7-7----------|
E|-----------------3-3-3-3-----5-5-----------------3-3-3-3-----5-5----------|
   * Let ring through the first two sets of chords worth.

The structure of the song is:
Intro      x1
Solo1      x1 (while verse plays over it)
Verse      x2
Slide      x1
Chorus     x1
Verse      x3
Chorus     x1
Interlude  x3
Interlude2 x3
Solo2      x1 (while Interlude 2 plays over it)
Chorus B   x1
Chorus     x1
Solo3      x1 (while verse plays over it)

************************************

| /   slide up
| \   slide down
| h   hammer-on
| p   pull-off
| ~   vibrato
| +   harmonic
| x   Mute note
| b   Bend
| pb  Pre-bend
| br  Bend release
| pbr Pre-bend release
| brb Bend release bend

************************************
Tap to rate this tab
# A B C D E F G H I J K L M N O P Q R S T U V W X Y Z