Song name
# A B C D E F G H I J K L M N O P Q R S T U V W X Y Z

Heavens Basement - Nothing Left To Lose tab

intro x2
-------------------------------------------------------------------|
-------------------------------------------------------------------|
-----------6-------------------------------6-----------------------|
--8-----6--6---8--------6---7---8------6---6-----------------------|
--8-----6--4---8--------6---7---8------6---4-------4---------6-----|
--6-----4------6--------4---5---6------4-------222---2-2-444---4---|

solo over second time of intro
-----------6---6---------------------------------------|
--------------------9-6--------------------------------|
--------------------------8-6------8b(9)-8-6-----------|
----8~-------------------------8--------------6-6------|
-------------------------------------------------------|
-6-----------------------------------------------------|

13~-13--11-9-----------------|
--------------11-11~---------|
-----------------------------|
-----------------------------|
-----------------------------|

Verse 1
cover your eyes....
-------------------------------------------------------------------|
-------------------------------------------------------------------|
-----------6-------------------------------6-----------------------|
--8-----6--6---8--------6---7---8------6---6-----------------------|x2
--8-----6--4---8--------6---7---8------6---4-------4---------6-----|
--6-----4------6--------4---5---6------4-------222---2-2-444---4---|

Chorus
I know how it feels....
------------------------------------------------------|
------------------------------------------------------|
--6---------------------------------------------------|
--6--------8---------4---------8----6-----------------|x2
--4--------8---------4---------8----6-----------------|
-----------6---------2---------6----4-----------------|

verse intro
-------------------------------------------------------------------|
-------------------------------------------------------------------|
-----------6-------------------------------6-----------------------|
--8-----6--6---8--------6---7---8------6---6-----------------------|x1
--8-----6--4---8--------6---7---8------6---4-------4---------6-----|
--6-----4------6--------4---5---6------4-------222---2-2-444---4---|

Verse 2
pushed to the edge...
-------------------------------------------------------------------|
-------------------------------------------------------------------|
-----------6-------------------------------6-----------------------|
--8-----6--6---8--------6---7---8------6---6-----------------------|x2
--8-----6--4---8--------6---7---8------6---4-------4---------6-----|
--6-----4------6--------4---5---6------4-------222---2-2-444---4---|

Chorus
I know how it feels....
------------------------------------------------------|
------------------------------------------------------|
--6---------------------------------------------------|
--6--------8---------4---------8----6-----------------|x2
--4--------8---------4---------8----6-----------------|
-----------6---------2---------6----4-----------------|

Bridge intro
-------------------------------------------------------------------|
-------------------------------------------------------------------|
----------6----------------3------------6-----------------------5--|
-------8---------------4------------6-----------------------6------|x1
----8--------------4-------------4----------6/8\6-------6----------|
--6-------------2-----------------------------------4--------------|
Bridge
--------------------------------------------------------------------|
--------------------------------------------------------------------|
----------6----------------3------------6----------------------5----|
-------8---------------4------------6-----------------------6-------|x4
----8--------------4-------------4----------6/8\6-6------6----------|
--6-------------2------------------------------------4--------------|

----------------------------|
----------------------------|
----------------6-----------|
------8----4----6----6------|x2
------8----4----4----6------|
------6----2---------4------|
solo over bridge
-------------------------14-14-14-14-14-(tapping)-11-13-16-11-14-16-16----|..
--11-11-11-11-11----------------------------------------------------------|
--------------------------------------------------------------------------|
--------------------------------------------------------------------------|
--------------------------------------------------------------------------|
--------------------------------------------------------------------------|

--13-13-16-13-13-16-13-13-16-13-13-16----|
-----------------------------------------|
-----------------------------------------|
-----------------------------------------|
-----------------------------------------|
-----------------------------------------|

Chorus
I know how it feels....
-------------------------------------------------------|
-------------------------------------------------------|
-------------------------------------------------------|
-------------------4---------8----6--------------------|x1
-------------------4---------8----6--------------------|
-------------------2---------6----4--------------------|


------------------------------------------------------|
------------------------------------------------------|
--6---------------------------------------------------|
--6--------8---------4---------8----6-----------------|x3
--4--------8---------4---------8----6-----------------|
-----------6---------2---------6----4-----------------|
Tap to rate this tab
 
# A B C D E F G H I J K L M N O P Q R S T U V W X Y Z