Guitaretab - guitar tabs
Song name
# A B C D E F G H I J K L M N O P Q R S T U V W X Y Z

Heavens To Betsy - Direction tab

e |---------------------------------------------------------------------|
B |---------------------------------------------------------------------|
G |---------------------------------------------------------------------|
D |---------------------------------------------------------------------|
A |---------------------------------------------------------------------|
E |--0-0-0-0-0-0-0-0-7-7-7-8---8-8--0-0-0-0-0-0-0-0-7-7-7-5---5-5-------|

e |---------------------------------------------------------------------|
B |---------------------------------------------------------------------|
G |---------------------------------------------------------------------|
D |---------------------------------------------------------------------|
A |---------------------------------------------------------------------|
E |--0-0-0-0-0-0-0-0-7-7-7-8---8-8--0-0-0-0-0-0-0-0-7-7-7-5---5-5-------|
[ Tab from: http://www.guitaretab.com/h/heavens-to-betsy/147750.html ]
e |--------------------------------|
B |--------------------------------|
G |--------------------------------|
D |--------------------------------|
A |--------------------------------|
E |-7-7-7-5---5-5--7-8-7-5---5-5---|

Play this ^ during the Verses



e |-------------------------------------|
B |-------------------------------------|
G |-------------------------------------|
D |--9-9-9-9-9-7-10--10-10-10-10-10-10--|
A |--9-9-9-9-9-7-10--10-10-10-10-10-10--|
E |--7-7-7-7-7-5-8---8--8 -8- 8 8 -8---|  X4

Play this ^ during the Chorus


e |--------------------------------------------------------|
B |--------------------------------------------------------|
G |--------------------------------------------------------|
D |-14-14--12-14-14-14-12-14-14-14-12-14-14-14-14-14-14-14-|
A |-14-14--12-14-14-14-12-14-14-14-12-14-14-14-14-14-14-14-|
E |-12-12--10-12-12-12-10-12-12-12-10-12-12-12-12-12-12-12-|

Play this bit ^ right after the Chorus, but be careful, cos it skips after the Chorus the second time round.

If u think that its not right, Pls email me heat_like_burning@hotmail.com
Related for Direction tab