Guitaretab - guitar tabs
Song name
# A B C D E F G H I J K L M N O P Q R S T U V W X Y Z

Heavens To Betsy - Monsters tab

e |------------------------------------|
B |-4-4-4--3--3-3--4-4-4--5--5-5-------|
G |-4-4-4--3--3-3--4-4-4--5--5-5-------|
D |-4-4-4--3--3-3--4-4-4--5--5-5-------|
A |------------------------------------|
E |------------------------------------|

Play This ^ 4 times during the Verse (plus 2 extra times at the beginning of the song). 
play it 4 times at the end during the screaming Bit
[ Tab from: ]
e |-------(4)------(4)------(4)------(4)|
B |-4-4-4----4-4-4----4-4-4----4-4-4----|
G |-4-4-4----4-4-4----4-4-4----4-4-4----|
D |-4-4-4----4-4-4----4-4-4----4-4-4----|
A |-------------------------------------|
E |-------------------------------------|

Play This ^ During The Chorus. Also theres a weird Xylophone bit imbetween each set of 
in the chorus which u can compensate for with a 4 or whatever u want, on the high e 
See brackett.

This could be wrong but it sounds right and thatís the important thing. If u think its 
email me
Related for Monsters tab