Song name
# A B C D E F G H I J K L M N O P Q R S T U V W X Y Z

Heavens To Betsy - Shes The One tab

---------------------------------
She’s The One - Heaven’s To Betsy
---------------------------------

Verse/Chorus
e|--------------|
b|--------------|
g|-----3--4-----|
d|--4--3--4--3--|
a|--4--1--2--3--|
E|--2--------1--|

Bridge
e|--------------|
b|--------------|
g|--3-----4-----|
d|--3--4--4--3--|
a|--1--4--2--3--|
E|-----2-----1--|
Tap to rate this tab
 
# A B C D E F G H I J K L M N O P Q R S T U V W X Y Z