Song name
# A B C D E F G H I J K L M N O P Q R S T U V W X Y Z

Heavens - Heather tab

-----------------------------------------------------------------
Heather - Heavens
-----------------------------------------------------------------
Tabbed by: Guillaume
Email:
Tuning: standard

main riff:
   F	       				  Am
E|-----------------------------------------------------------------|
B|-1-1-1-1-1-1-1-1-1-1-1-1-1-1-1-1-1-1-1-1-1-1-1-1-1-1-1-1-1-1-1-1-|
G|-2-2-2-2-2-0-0-0-2-2-2-2-2-0-0-0-2-2-2-2-2-2-2-2-0-0-0-0-0-0-0-0-|
D|-3-3-3-3-3-3-3-3-3-3-3-3-3-3-3-3-2-2-2-2-2-2-2-2-2-2-2-2-2-2-2-2-|
A|-3-3-3-3-3-3-3-3-3-3-3-3-3-3-3-3-0-0-0-0-0-0-0-0-0-0-0-0-0-0-0-0-|
E|-----------------------------------------------------------------|

verse:
   F					  Am
E|-----------------------------------------------------------------|
B|-1-1--0h1-1--1-1-1--0h1-1--1-1-1--1/3-3--1-1-1--1/3-3------------|
G|-2-2---------2-2-2---------2-2-2---------2-2-2-------------------|
D|-3-3---------2-2-2---------2-2-2---------2-2-2-------------------|
A|-3-3---------3-3-3---------0-0-0---------0-0-0-------------------|
E|-----------------------------------------------------------------|


chorus:

        Bb
Telling you to run away and hide
    F
Too early in the day for talking
Bb
I got a feeling you're busy painting
Am          C                   
Children in death and decay


Then immediately back to the main riff where the drums come in:
  F	       				  Am
E|-----------------------------------------------------------------|
B|-1-1-1-1-1-1-1-1-1-1-1-1-1-1-1-1-1-1-1-1-1-1-1-1-1-1-1-1-1-1-1-1-|
G|-2-2-2-2-2-0-0-0-2-2-2-2-2-0-0-0-2-2-2-2-2-2-2-2-0-0-0-0-0-0-0-0-|
D|-3-3-3-3-3-3-3-3-3-3-3-3-3-3-3-3-2-2-2-2-2-2-2-2-2-2-2-2-2-2-2-2-|
A|-3-3-3-3-3-3-3-3-3-3-3-3-3-3-3-3-0-0-0-0-0-0-0-0-0-0-0-0-0-0-0-0-|
E|-----------------------------------------------------------------|

Thats the basics of the song. I hope this is helpful to someone.


Tablature Notation

h - hammer on 
p - pull off 
b - bend string up
r - release bend
/ - slide up
\ - slide down
v - vibrato (or ~)
t - right hand tap
x - play 'note' with heavy muting
Tap to rate this tab
 
# A B C D E F G H I J K L M N O P Q R S T U V W X Y Z