Heavens - Watching You tab

Heavens
Watching You

INTRO
|----------------------------------------------------------------------|
|:10-10-10--10-10-10-10-10-10-10-10--10-10-10-------------------------:|
|-10-10-10--12-12-12-12-12-12-12-12--10-10-10--14-14-14-14-14-14-14-14-|
|-12-12-12--12-12-12-12-12-12-12-12--12-12-12--12-12-12-12-12-12-12-12-|
|:--------------------------------------------------------------------:|
|----------------------------------------------------------------------|


Verse
----------------------------------------------------------------|
----------------------------------------------------------------|
----2------2^3^2-0-----2-----2------2-----2^3^2-0---2-----2-----|
-0-----0-----------3------3----3-0-----0----------3----3------3-|
----------------------------------------------------------------|
----------------------------------------------------------------|


Verse Outro
|---------------------|------------------|
|:----1------1---1---:|----1------1^3-1--|
|-------0-------------|------0-----------|
|--2------3----3---3--|-2------3---------|
|:-------------------:|------------------|
|---------------------|------------------|


Pre-Chorus
|---------------------------|-------------|
|:-3-1-1--3---1----3---1---:|-3-1-1-------|
|--0-2--2-------2----2---2--|-0-2-2-------|
|--2-3------2---3--------3--|-2-3-3--2-3--|
|:-------------------------:|-------------|
|---------------------------|-------------|


Chorus… Sharpening Knives…
|----------------------------------------------------------------------|
|:10-10-10--10-10-10-10-10-10-10-10--10-10-10-------------------------:|
|-10-10-10--12-12-12-12-12-12-12-12--10-10-10--14-14-14-14-14-14-14-14-|
|-12-12-12--12-12-12-12-12-12-12-12--12-12-12--12-12-12-12-12-12-12-12-|
|:--------------------------------------------------------------------:|
|----------------------------------------------------------------------|


Verse
----------------------------------------------------------------|
------1----------------1--------------1--------------1----------|
----2------2^3^2-0-----2-----2------2-----2^3^2-0----2----2-----|
-0------0----------2-3----3----3-0------0---------23---3------3-|
----------------------------------------------------------------|
----------------------------------------------------------------|



|----------------------------------------------------------------------|
|:10-10-10--10-10-10-10-10-10-10-10--10-10-10-------------------------:|
|-10-10-10--12-12-12-12-12-12-12-12--10-10-10--14-14-14-14-14-14-14-14-|
|-12-12-12--12-12-12-12-12-12-12-12--12-12-12--12-12-12-12-12-12-12-12-|
|:--------------------------------------------------------------------:|
|----------------------------------------------------------------------|



Pre-Chorus
|---------------------------|-------------|
|:-3-1-1--3---1----3---1---:|-3-1-1-------|
|--0-2--2-------2----2---2--|-0-2-2-------|
|--2-3------2---3--------3--|-2-3-3--2-3--|
|:-------------------------:|-------------|
|---------------------------|-------------|



Chorus… Sharpening Knives…
|---------------------------------------------------------------------|
|:--------------------------------------------------------------------|
|--77777777777777777777777777777777-555555555555555555555555555555555-|
|--Xxxxxxxxxxxxxxxxxxxxxxxxxxxxxxxx-xxxxxxxxxxxxxxxxxxxxxxxxxxxxxxxxx-
|:-55555555555555555555555555555555-333333333333333333333333333333333-|
|---------------------------------------------------------------------|


Chorus… Sharpening Knives…
-----------------------------------------------------------------|
--------------------------------------------8888888888888-666666-|
-10-10-10-10-10-999999999999-10-10-10-10-10-xxxxxxxxxxxxx-xxxxxx-|
--x--x--x--x--x-xxxxxxxxxxxx--x--x--x--x--x-5555555555555-333333-|
--8--8--8--8--8-777777777777--8--8--8--8--8----------------------|
-----------------------------------------------------------------|


Chorus… Sharpening Knives…
--------------------------------------------|
-5555555555555-10-10-10-10-8888-6666-5555--:|
-xxxxxxxxxxxxx--x--x--x--x-xxxx-xxxx-xxxx---|
-2222222222222--7--7--7--7-5555-3333-2222---|
-------------------------------------------:|
--------------------------------------------|



Chorus… Sharpening Knives…
|----------------------------------------------------------------------|
|:10-10-10--10-10-10-10-10-10-10-10--10-10-10-------------------------:|
|-10-10-10--12-12-12-12-12-12-12-12--10-10-10--14-14-14-14-14-14-14-14-|
|-12-12-12--12-12-12-12-12-12-12-12--12-12-12--12-12-12-12-12-12-12-12-|
|:--------------------------------------------------------------------:|
|----------------------------------------------------------------------|


Pre-Chorus
||---------------------------||----------------||
||:-3-1-1--3---1----3---1---:||:--3-1-1-------:||
||--0-2--2-------2----2---2--||---0-2-2--------||
||--2-3------2---3--------3--||---2-3-3--2-3---||
||:-------------------------:||:--------------:||
||---------------------------||----------------||
Tap to rate this tab
 
# A B C D E F G H I J K L M N O P Q R S T U V W X Y Z