Song name
# A B C D E F G H I J K L M N O P Q R S T U V W X Y Z

Heavens - Annabelle tab

Annabelle

|Guitar One
|----------------------------------|---------|
|:---6---6------------------------:|--8/10---|
|----------0-0^2/5---5---5--5-5-5--|---------|
|--0---0-----------7---7---7-7-7---|---------|
|:--------------------------------:|---------|
|----------------------------------|---------|
|
|
|Guitar Two, comes in on first repeat
|-------------------------------------|
|:-----------------------------------:|
|-----5---3---2---2\3---2---0---3--2--|
|--00---0---0---0-----33--3---1---1---|
|:-----------------------------------:|
|-------------------------------------|


|Guitar One
|------------------------------|
|:--6---6---------------------:|
|-0---0---0-0^2/5---5-5-5-5-5--|
|-----------------8--8-8-8-8---|
|:----------------------------:|
|------------------------------|
|
|
|Guitar Two
|------------------------------------|
|:----------------------------------:|
|----5---3---2---0----3---2----------|
|--0---0---0---0----0---0-----5---3--|
|:--------------------------5---5---:|
|------------------------------------|



|Guitar One
|----------------------------------|---------|
|:---6---6------------------------:|--3/10---|
|----------0-0^2/5---5---5--5-5-5--|---------|
|--0---0-----------7---7---7-7-7---|---------|
|:--------------------------------:|---------|
|----------------------------------|---------|
|
|
|Guitar Two
|-------------------------------------|
|:-----------------------------------:|
|-----5---3---2---2\3---2---0---3--2--|
|--00---0---0---0-----33--3---1---1---|
|:-----------------------------------:|
|-------------------------------------|




|Guitar One
|------------------------------|
|:--6---6---------------------:|
|-0---0---0-0^2/5---5-5-5-5-5--|
|-----------------8--8-8-8-8---|
|:----------------------------:|
|------------------------------|
|
|
|Guitar Two
|------------------------------------|
|:----------------------------------:|
|----5---3---2---0----3---2----------|
|--0---0---0---0----0---0-----5---3--|
|:--------------------------5---5---:|
|------------------------------------|
|
|
|Guitar Three
||-6-5-3-0-------6-5---------------------------------------------||
||------------33-------------------------------------------------||
||---------------------------------------------------------------||
||---------------------------------------------------------------||
||---------------------------------------------------------------||
||---------------------------------------------------------------||


Chorus
---------------------10-10-10-10-10-10-10-10-10-10-10-10-10-10-10-10-|
6666-/88---6666-/88--10-10-10-10-10-10-10-10-10-10-10-10-10-10-10-10-|
5555-/77---5555-/77---7--7--7--7--7--7--7--7--7--7--7--7--7--7--7--7-|
3333-/55-x-3333-/55-x-0--0--0--0--0--0--0--0--0--0--0--0--0--0--0--0-|
3333-/55-x-3333-/55-x-0--0--0--0--0--0--0--0--0--0--0--0--0--0--0--0-|
---------x----------x------------------------------------------------|

Chorus
---------------------10-10-10-10-10-10-10-10-10-10-10-10-10-10-10-10-|
6666-/88---6666-/88--10-10-10-10-10-10-10-10-10-10-10-10-10-10-10-10-|
5555-/77---5555-/77---7--7--7--7--7--7--7--7--7--7--7--7--7--7--7--7-|
3333-/55-x-3333-/55-x-0--0--0--0--0--0--0--0--0--0--0--0--0--0--0--0-|
3333-/55-x-3333-/55-x-0--0--0--0--0--0--0--0--0--0--0--0--0--0--0--0-|
---------x----------x------------------------------------------------|

|Chorus, Guitar One
|---------------------------------------------------------------------|
|3333333333333333-3333333333333333-3333333333333333-33333333-55555555-|
|3333333333333333-3333333333333333-3333333333333333-33333333-55555555-|
|5555555555555555-3333333333333333-5555555555555555-33333333-55555555-|
|5555555555555555-1111111111111111-5555555555555555-11111111-33333333-|
|3333333333333333-1111111111111111-3333333333333333-11111111-33333333-|
|
|
|Chorus, Guitar Two
|------------------------------------|
|:----------------------------------:|
|----5---3---2---0----3---2----------|
|--0---0---0---0----0---0-----5---3--|
|:--------------------------5---5---:|
|------------------------------------|

|Guitar One
|----------------------------------|---------|
|:---6---6------------------------:|--8/10---|
|----------0-0^2/5---5---5--5-5-5--|---------|
|--0---0-----------7---7---7-7-7---|---------|
|:--------------------------------:|---------|
|----------------------------------|---------|
|
|
|Guitar Two, comes in on first repeat
|-------------------------------------|
|:-----------------------------------:|
|-----5---3---2---2\3---2---0---3--2--|
|--00---0---0---0-----33--3---1---1---|
|:-----------------------------------:|
|-------------------------------------|
|
|
||Guitar Three
|--------------------------------------------------------------------|
|-10----11----10--------10-----11------10----11----10------10-----11-|
|--------------------------------------------------------------------|
|--------------------------------------------------------------------|
|--------------------------------------------------------------------|
|--------------------------------------------------------------------|



|Guitar One
|------------------------------|
|:--6---6---------------------:|
|-0---0---0-0^2/5---5-5-5-5-5--|
|-----------------8--8-8-8-8---|
|:----------------------------:|
|------------------------------|
|
|
|Guitar Two
|------------------------------------|
|:----------------------------------:|
|----5---3---2---0----3---2----------|
|--0---0---0---0----0---0-----5---3--|
|:--------------------------5---5---:|
|------------------------------------|



Chorus
---------------------10-10-10-10-10-10-10-10-10-10-10-10-10-10-10-10-|
6666-/88---6666-/88--10-10-10-10-10-10-10-10-10-10-10-10-10-10-10-10-|
5555-/77---5555-/77---7--7--7--7--7--7--7--7--7--7--7--7--7--7--7--7-|
3333-/55-x-3333-/55-x-0--0--0--0--0--0--0--0--0--0--0--0--0--0--0--0-|
3333-/55-x-3333-/55-x-0--0--0--0--0--0--0--0--0--0--0--0--0--0--0--0-|
---------x----------x------------------------------------------------|


Chorus
---------------------10-10-10-10-10-10-10-10-10-10-10-10-10-10-10-10-|
6666-/88---6666-/88--10-10-10-10-10-10-10-10-10-10-10-10-10-10-10-10-|
5555-/77---5555-/77---7--7--7--7--7--7--7--7--7--7--7--7--7--7--7--7-|
3333-/55-x-3333-/55-x-0--0--0--0--0--0--0--0--0--0--0--0--0--0--0--0-|
3333-/55-x-3333-/55-x-0--0--0--0--0--0--0--0--0--0--0--0--0--0--0--0-|
---------x----------x------------------------------------------------|


|Chorus, Guitar One
|---------------------------------------------------------------------|
|3333333333333333-3333333333333333-3333333333333333-33333333-55555555-|
|3333333333333333-3333333333333333-3333333333333333-33333333-55555555-|
|5555555555555555-3333333333333333-5555555555555555-33333333-55555555-|
|5555555555555555-1111111111111111-5555555555555555-11111111-33333333-|
|3333333333333333-1111111111111111-3333333333333333-11111111-33333333-|
|
|
|Chorus, Guitar Two
|------------------------------|
|:--6---6---------------------:|
|-0---0---0-0^2/5---5-5-5-5-5--|
|-----------------8--8-8-8-8---|
|:----------------------------:|
|------------------------------|



|Guitar One
|----------------------------------|---------|
|:---6---6------------------------:|--8/10---|
|----------0-0^2/5---5---5--5-5-5--|---------|
|--0---0-----------7---7---7-7-7---|---------|
|:--------------------------------:|---------|
|----------------------------------|---------|
|
|
|Guitar Two, comes in on first repeat
|-------------------------------------|
|:-----------------------------------:|
|-----5---3---2---2\3---2---0---3--2--|
|--00---0---0---0-----33--3---1---1---|
|:-----------------------------------:|
|-------------------------------------|



-------------------------------------------------------------------|
----10-------------------------------------------------------------|
-----7-------------------------------------------------------------|
-----0-------------------------------------------------------------|
-----0-------------------------------------------------------------|
-------------------------------------------------------------------|
Tap to rate this tab
 
# A B C D E F G H I J K L M N O P Q R S T U V W X Y Z