Song name
# A B C D E F G H I J K L M N O P Q R S T U V W X Y Z

Heavens - Another Night tab

INTRO
777777777777777-----666--66666---6----7-7-7-7-7-7--7-777777777777777-|
555555555555555/9-55555555555555555--9999999999999-9-999999999999999-|
666666666666666/9-44---44-----444-4--6-6-6-6-6-6-6-9-999999999999999-|
-----------------------------------------------------999999999999999-|
---------------------------------------------------------------------|
---------------------------------------------------------------------|


GUITAR ONE
|------------------------------------------------|
|:----------------------------------------------:|
|--6666666-7777777-9999999-11-11-11-11-11-11-11--|
|--6666666-7777777-9999999-11-11-11-11-11-11-11--|
|:-4444444-5555555-7777777--9--9--9--9--9--9--9-:|
|------------------------------------------------|
|                                                |
|                                                |
|GUITAR TWO                                      |
|----7---7---7---7---7---7---7---7---7---7---7---|
|:-9---9---9---9---9---9---9---9---9---9---9----:|
|------------------------------------------------|
|------------------------------------------------|
|:----------------------------------------------:|
|------------------------------------------------|


GUITAR THREE (Comes in after first vocal part, heavy dist.)
|------------------------------------|-------------------------||
|:--9---9---9---9-7777-10-10-10-10--:|-9---9---9---9-7--7^9\---||
|-----9---9---9---9999--9--9--9--9---|---9---9---9---9--9(9)\--||
|------------------------------------|-------------------------||
|:----------------------------------:|-------------------------||
|------------------------------------|-------------------------||


Main Verse Part
-----------------------------------------------------|
--9--9--9--9---9--9--10-10--9------9999-99-10-10-9---|
--9--9--9--9---9--9---9--9--9--9---9999-99--9--9-9-9-|
-11-11-11-11--11-11---9--9-11-11---9999-99--9--9-9-9-|
-----------------------------------------------------|
-----------------------------------------------------|



CHORUS
|------------------------------------------------|
|:----------------------------------------------:|
|--6666666-7777777-9999999-11-11-11-11-11-11-11--|
|--6666666-7777777-9999999-11-11-11-11-11-11-11--|
|:-4444444-5555555-7777777--9--9--9--9--9--9--9-:|
|------------------------------------------------|
|
|
|------------------------------------|-------------------------||
|:--9---9---9---9-7777-10-10-10-10--:|-9---9---9---9-7--7^9\---||
|-----9---9---9---9999--9--9--9--9---|---9---9---9---9--9(9)\--||
|------------------------------------|-------------------------||
|:----------------------------------:|-------------------------||
|------------------------------------|-------------------------||


Verse, guitar one
-----------------------------------------------------|
--9--9--9--9---9--9--10-10--9------9999-99-10-10-9---|
--9--9--9--9---9--9---9--9--9--9---9999-99--9--9-9-9-|
-11-11-11-11--11-11---9--9-11-11---9999-99--9--9-9-9-|
-----------------------------------------------------|
-----------------------------------------------------|


Verse, guitar two. “We’ll make believe…”
|--------------------------------------------|--12--12--12--12----|
|:-----12---12---12---12---12---12---12---12-|:---12--12--12--12-:|
|---13----13---13---13---13---13---13---13---|--------------------|
|--------------------------------------------|--------------------|
|:-------------------------------------------|:------------------:|
|--------------------------------------------|--------------------|



CHORUS, guitar one
|------------------------------------------------|
|:----------------------------------------------:|
|--6666666-7777777-9999999-11-11-11-11-11-11-11--|
|--6666666-7777777-9999999-11-11-11-11-11-11-11--|
|:-4444444-5555555-7777777--9--9--9--9--9--9--9-:|
|------------------------------------------------|
|
CHORUS, guitar 2
|------------------------------------|-------------------------||
|:--9---9---9---9-7777-10-10-10-10--:|-9---9---9---9-7--7^9\---||
|-----9---9---9---9999--9--9--9--9---|---9---9---9---9--9(9)\--||
|------------------------------------|-------------------------||
|:----------------------------------:|-------------------------||
|------------------------------------|-------------------------||


CHORUS, they left you with nothing…
|--------------------|------------------|
|:------------------:|------------------|
|--6666666-7777777---|-9999999999999999-|
|--6666666-7777777---|-9999999999999999-|
|:-4444444-5555555--:|-7777777777777777-|
|--------------------|------------------|
|
|"they left you with nothing…"
|----------------------------|-12--12--12--12--12--12--12--12---|
|:--9---9---9---9-77777777--:|---12--12--12--12--12--12--12--12-|
|-----9---9---9---99999999---|----------------------------------|
|----------------------------|----------------------------------|
|:--------------------------:|----------------------------------|
|----------------------------|----------------------------------|


Weird feedback interlude turned into notes by yours truly
(21)--------------------------------(10)fb----(20)---------(21)-----|
-feedback--(19/21)------------------(14)fb---------(17)-------------|
-note--------fb------0----------------------------------------------|
---------------------0-heaavy---------------------------=------(17--|
---------------------0-distortion----------------------(0)----------|
---------------------0----------------------------------------------|


Guitar one lead
|--------------------------------------------|
|:-12-12-12-12-12-12-12-12-10-10-10-10-9999-:|
|---9--9--9--9--9--9--9--9--9--9--9--9-9999--|
|--------------------------------------------|
|:------------------------------------------:|
|--------------------------------------------|
|
|
|guitar two rhythm
|--------------------|
|:------------------:|
|--6666666-7777777---|
|--6666666-7777777---|
|:-4444444-5555555--:|
|--------------------|


Guitar one solo
|-12-12-12-12\--------------------------|
|-12-12-12-12\--/10-10-9999-10-10-10-10-|
|--9--9--9--9-----9--9-9999--9--9--9--9-|
|---------------------------------------|
|---------------------------------------|
|---------------------------------------|
|
|guitar two rhythm
|------------------|
|------------------|
|-9999999999999999-|
|-9999999999999999-|
|-7777777777777777-|
|------------------|



CHORUS, guitar one
|------------------------------------------------|
|:----------------------------------------------:|
|--6666666-7777777-9999999-11-11-11-11-11-11-11--|
|--6666666-7777777-9999999-11-11-11-11-11-11-11--|
|:-4444444-5555555-7777777--9--9--9--9--9--9--9-:|
|------------------------------------------------|
|
|
|CHORUS, guitar 2
|------------------------------------|--12-^-12-12-12-12-------||
|:--9---9---9---9-7777-10-10-10-10--:|--16^-^16-16-16-16-------||
|-----9---9---9---9999--9--9--9--9---|---pick n bend-----------||
|------------------------------------|-------------------------||
|:----------------------------------:|-------------------------||
|------------------------------------|-------------------------||



CHORUS, guitar one
|------------------------------------------------|-------------||
|:----------------------------------------------:|-------------||
|--6666666-7777777-9999999-11-11-11-11-11-11-11--|----6--------||
|--6666666-7777777-9999999-11-11-11-11-11-11-11--|----6--------||
|:-4444444-5555555-7777777--9--9--9--9--9--9--9-:|----4--------||
|------------------------------------------------|-------------||
|
|
|CHORUS, guitar 2
|------------------------------------|---12--------------------||
|:--9---9---9---9-7777-10-10-10-10--:|----9--------------------||
|-----9---9---9---9999--9--9--9--9---|----9--------------------||
|------------------------------------|-------------------------||
|:----------------------------------:|-------------------------||
|------------------------------------|-------------------------||
Tap to rate this tab
 
# A B C D E F G H I J K L M N O P Q R S T U V W X Y Z