Heavens - Patent Pending tab

Patent Pending

Guitar one, intro
|------------------------|
|:----------------------:|
|--------------22--------|
|--22-44-55-44----54000--|
|:----------------------:|
|------------------------|
|
|
|Guitar two, intro
|--------------------------||
|-0---3---0------0---3-3/5-||
|------------2-------------||
|--------------------------||
|--------------------------||
|--------------------------||


VERSE
|--77-X777-X777-X555-X333-X333-X333-X222--X777X777X777-X10-10-10-|
|:-88-X888-X888-X777-X555-X555-X555-X333--X888X888X888-X-7--7--7-|
|----------------------------------------------------------------|
|----------------------------------------------------------------|
|:---------------------------------------------------------------|
|----------------------------------------------------------------|


VERSE
X333-X333-X10-10-10-X10-10-10X--|
X555-X555-X-7--7--7-X-7--7--7X-:|
--------------------------------|
--------------------------------|
-------------------------------:|
--------------------------------|



Guitar one
|------------------------|-------------PM-------------|
|:----------------------:|-------------========-------|
|--------------22--------|-------------22022-22-------|
|--22-44-55-44----54000--|-22-44-55-44----------------|
|:----------------------:|----------------------------|
|------------------------|----------------------------|
|
|
|Guitar two
|--------------------------||
|-0---3---0------0---3-3/5-||
|------------2-------------||
|--------------------------||
|--------------------------||
|--------------------------||



VERSE
|--77-X777-X777-X555-X333-X333-X333-X222--X777X777X777-X10-10-10-|
|:-88-X888-X888-X777-X555-X555-X555-X333--X888X888X888-X-7--7--7-|
|----------------------------------------------------------------|
|----------------------------------------------------------------|
|:---------------------------------------------------------------|
|----------------------------------------------------------------|


VERSE
X333-X333-X10-10-10-X10-10-10X--|
X555-X555-X-7--7--7-X-7--7--7X-:|
--------------------------------|
--------------------X\\PICK-----|
--------------------X\\\SCRAPE-:|
----------------------\\\-------|


chorus
---------------------------------------------------|
-----------10-10-10---888-----------10-10-10---888-|
-999999999--9--9--9---777-999999999--9--9--9---777-|
-999999999--7--7--7-X-555-999999999--7--7--7---555-|
-777777777--7--7--7-X-555-777777777--7--7--7-X-555-|
-777777777----------------777777777----------------|


chorus
--------------------------|
-----------10-10-10---888-|
-999999999--9--9--9---777-|
-999999999--7--7--7-X-555-|
-777777777--7--7--7-X-555-|
-777777777----------------|


chorus
--------------------------------------3-3-3-|
--------------------------------------3-3-3-|
-10-10-10-10-10-10-10-10-10--3---3--3-0-0-0-|
-10-10-10-10-10-10-10-10-10--3---3--3-0-0-0-|
--8--8--8--8--8--8--8--8--8--1---1--1-------|
--8--8--8--8--8--8--8--8--8--1---1--1-------|


Guitar one, intro
|------------------------|
|:----------------------:|
|--------------22--------|
|--22-44-55-44----54000--|
|:----------------------:|
|------------------------|
|
|
|Guitar two, intro
|--------------------------||
|-0---3---0------0---3-3/5-||
|------------2-------------||
|--------------------------||
|--------------------------||
|--------------------------||



VERSE
|--77-X777-X777-X555-X333-X333-X333-X222--X777X777X777-X10-10-10-|
|--88-X888-X888-X777-X555-X555-X555-X333--X888X888X888-X-7--7--7-|
|----------------------------------------------------------------|
|----------------------------------------------------------------|
|----------------------------------------------------------------|
|----------------------------------------------------------------|


VERSE
X333-X333-X10-10-10-X10-10-10X--777777--------77777-555-777-------|
X555-X555-X-7--7--7-X-7--7--7X--888888--------88888-777-888-------|
--------------------------------======--REST----------------REST--|
--------------------------------PM--------------------------------|
------------------------------------------------------------------|
------------------------------------------------------------------|


VERSE
-777-10-10-10----33-X333-X-10-10-10-X-10-10-10-|
-888--8--8--8-R.-55-X555-X-7---7--7-X--7--7--7-|
-----------------------------------------------|
-----------------------------------------------|
-----------------------------------------------|
-----------------------------------------------|


chorus
---------------------------------------------------|
-----------10-10-10---888-----------10-10-10---888-|
-999999999--9--9--9---777-999999999--9--9--9---777-|
-999999999--7--7--7-X-555-999999999--7--7--7---555-|
-777777777--7--7--7-X-555-777777777--7--7--7-X-555-|
-777777777----------------777777777----------------|


chorus
--------------------------|
-----------10-10-10---888-|
-999999999--9--9--9---777-|
-999999999--7--7--7-X-555-|
-777777777--7--7--7-X-555-|
-777777777----------------|


chorus
--------------------------------------3-3-3-|
--------------------------------------3-3-3-|
-10-10-10-10-10-10-10-10-10--3---3--3-0-0-0-|
-10-10-10-10-10-10-10-10-10--3---3--3-0-0-0-|
--8--8--8--8--8--8--8--8--8--1---1--1-------|
--8--8--8--8--8--8--8--8--8--1---1--1-------|


chorus
---------------------------------------------------|
-----------10-10-10---888-----------10-10-10---888-|
-999999999--9--9--9---777-999999999--9--9--9---777-|
-999999999--7--7--7-X-555-999999999--7--7--7---555-|
-777777777--7--7--7-X-555-777777777--7--7--7-X-555-|
-777777777----------------777777777----------------|


chorus
--------------------------|
-----------10-10-10---888-|
-999999999--9--9--9---777-|
-999999999--7--7--7-X-555-|
-777777777--7--7--7-X-555-|
-777777777----------------|


chorus
--------------------------------------3-3-3-|
--------------------------------------3-3-3-|
-10-10-10-10-10-10-10-10-10--3---3--3-0-0-0-|
-10-10-10-10-10-10-10-10-10--3---3--3-0-0-0-|
--8--8--8--8--8--8--8--8--8--1---1--1-------|
--8--8--8--8--8--8--8--8--8--1---1--1-------|


|BRIDGE, Guitar
|--------------------3\2-----|-------------------------------3\2----|
|:----3----5-----3-------3--:|-------5-------5-------5----------3---|
|--44--444---444---4---------|---4-------4-------4-------4----------|
|----------------------------|-22-222-222-222-222-222-222-22--------|
|:--------------------------:|--------------------------------------|
|----------------------------|--------------------------------------|
|
|
|BRIDGE, Guitar TWO
|---------------------|--------------------------|-------------------|
|:-------------------:|:------------------------:|-------------------|
|--PM-----------------|-000-000---00000000000000-|-0-0--0-0000000000-|
|--=================--|-222-444-/999999999999999-|-2-4-10-9999999999-|
|:-777777777777-7555-:|:------------------------:|-------------------|
|---------------------|--------------------------|-------------------|



chorus
---------------------------------------------------|
-----------10-10-10---888-----------10-10-10---888-|
-999999999--9--9--9---777-999999999--9--9--9---777-|
-999999999--7--7--7-X-555-999999999--7--7--7---555-|
-777777777--7--7--7-X-555-777777777--7--7--7-X-555-|
-777777777----------------777777777----------------|



chorus
--------------------------|
-----------10-10-10---888-|
-999999999--9--9--9---777-|
-999999999--7--7--7-X-555-|
-777777777--7--7--7-X-555-|
-777777777----------------|


chorus
--------------------------------------3-3-3-|
--------------------------------------3-3-3-|
-10-10-10-10-10-10-10-10-10--3---3--3-0-0-0-|
-10-10-10-10-10-10-10-10-10--3---3--3-0-0-0-|
--8--8--8--8--8--8--8--8--8--1---1--1-------|
--8--8--8--8--8--8--8--8--8--1---1--1-------|



chorus
---------------------------------------------------|
-----------10-10-10---888-----------10-10-10---888-|
-999999999--9--9--9---777-999999999--9--9--9---777-|
-999999999--7--7--7-X-555-999999999--7--7--7---555-|
-777777777--7--7--7-X-555-777777777--7--7--7-X-555-|
-777777777----------------777777777----------------|


chorus
--------------------------|
-----------10-10-10---888-|
-999999999--9--9--9---777-|
-999999999--7--7--7-X-555-|
-777777777--7--7--7-X-555-|
-777777777----------------|


chorus
--------------------------------------3-3-3-|
--------------------------------------3-3-3-|
-10-10-10-10-10-10-10-10-10--3---3--3-0-0-0-|
-10-10-10-10-10-10-10-10-10--3---3--3-0-0-0-|
--8--8--8--8--8--8--8--8--8--1---1--1-------|
--8--8--8--8--8--8--8--8--8--1---1--1-------|



Guitar one, intro
|------------------------|--------------|
|:----------------------:|--------------|
|--------------22--------|--------------|
|--22-44-55-44----54000--|----9---------|
|:----------------------:|-5/-7---------|
|------------------------|--------------|
|
|
|Guitar two, intro
|--------------------------||
|:0---3---0------0---3-3/5:||
|------------2-------------||
|--------------------------||
|:------------------------:||
|--------------------------||
Tap to rate this tab
 
# A B C D E F G H I J K L M N O P Q R S T U V W X Y Z