Heavens - Counting tab

 The one thing that i have learned about heavens is that the bass is equally as
important as the guitar in almost every song, its like they only have their leads and 
fills but
no 6-string rhythm, so, if ya ever wanna jam any of their tunes, ya gotta have a bassist 
right there with ya to get the goose bump effect. Cheers.

"Counting"

intro
|---------------------------------------|
|:-------------------------------------:|
|--555555555555555555555555/777777777\--|
|--xxxxxxxxxxxxxxxxxxxxxxxx-xxxxxxxxx---|
|:-333333333333333333333333/555555555\-:|
|---------------------------------------|


Verse play 3Xs
|--------------------------|-----------------------------||
|:------------------------:|-----------------------------||
|-999999999^5-99999999/10--|--999999999^5-9999-12-10-9^0-||
|--------------------------|-----------------------------||
|:------------------------:|-----------------------------||
|--------------------------|-----------------------------||



Verse play 3Xs
|--------------------------|-----------------------------||
|:------------------------:|-----------------------------||
|-999999999^5-99999999/10--|-/12-12-12-12-12-12-12-------||
|--------------------------|-----------------------------||
|:------------------------:|-----------------------------||
|--------------------------|-----------------------------||



Pre-Chorus
|---------------------3--|------------|
|:----------------------:|------------|
|------------------------|------------|
|------2----2----2-------|------------|
|:--00---00---00---0----:|-10\--------|
|------------------------|------------|


interlude
|---------------------------------------|
|:-------------------------------------:|
|--555555555555555555555555/777777777\--|
|--xxxxxxxxxxxxxxxxxxxxxxxx-xxxxxxxxx---|
|:-333333333333333333333333/555555555\-:|
|---------------------------------------|


Verse play 3Xs
|--------------------------|-----------------------------||
|:------------------------:|-----------------------------||
|-999999999^5-99999999/10--|--999999999^5-9999-12-10-9^0-||
|--------------------------|-----------------------------||
|:------------------------:|-----------------------------||
|--------------------------|-----------------------------||




Verse play 3Xs
|--------------------------|-----------------------------||
|:------------------------:|-----------------------------||
|-999999999^5-99999999/10--|-/12-12-12-12-12-12-12-------||
|--------------------------|-----------------------------||
|:------------------------:|-----------------------------||
|--------------------------|-----------------------------||



Pre-Chorus
|---------------------3--|------------|
|:----------------------:|------------|
|------------------------|------------|
|------2----2----2-------|------------|
|:--00---00---00---0----:|-10\--------|
|------------------------|------------|



Chorus
-----------------------------------------------------------------|
-----------------------------------------------------------------|
-12-12-12-12-12-10-9-10-9\-5--12-12-12-12-12-10-9-10-12-12-12-12-|
--x--x--x--x--x--x-x--x-x--x---x--x--x--x--x--x-x--x--x--x--x--x-|
-10-10-10-10-10--8-7--8-7\-3--10-10-10-10-10--8-7--8-10-10-10-10-|
-----------------------------------------------------------------|



Chorus
-----------------------------------------------------------------|
-----------------------------------------------------------------|
-12-12-12-12-12-10-9-10-9\-555-444-555-777-555-44-55-------------|
--x--x--x--x--x--x-x--x-x--xxx-xxx-xxx-xxx-xxx-xx-xx-------------|
-10-10-10-10-10--8-7--8-7\-333-222-333-555-333-22-33-------------|
-----------------------------------------------------------------|



Chorus
-----------------------------------------------------------------|
-----------------------------------------------------------------|
-12-12-12-12-12-10-9-10-9\-5--12-12-12-12-12-10-9-10-12-12-12-12-|
--x--x--x--x--x--x-x--x-x--x---x--x--x--x--x--x-x--x--x--x--x--x-|
-10-10-10-10-10--8-7--8-7\-3--10-10-10-10-10--8-7--8-10-10-10-10-|
-----------------------------------------------------------------|


Chorus
------------------------------------------------|
------------------------------------------------|
--12-12-12-12-12-10-9-10-9\-5-4444444444444444--|
---x--x--x--x--x--x-x--x-x--x-xxxxxxxxxxxxxxxx--|
--10-10-10-10-10--8-7--8-7\-3-2222222222222222--|
------------------------------------------------|




|---------------------------------------|
|:-------------------------------------:|
|--555555555555555555555555/777777777\--|
|--xxxxxxxxxxxxxxxxxxxxxxxx-xxxxxxxxx---|
|:-333333333333333333333333/555555555\-:|
|---------------------------------------|



verse
--------------------------------------12----12-------------------------|
-------------------(10)------------------15----------------------------|
--rest-----------------(9)---------------------------------------------|
--------------------feedback-------------------------------------------|
--------------------notes----------------------------------------------|
-----------------------------------------------------------------------|



Pre-Chorus
|---------------------3--|------------|
|:----------------------:|------------|
|------------------------|------------|
|------2----2----2-------|------------|
|:--00---00---00---0----:|-10\--------|
|------------------------|------------|




Chorus
-----------------------------------------------------------------|
-----------------------------------------------------------------|
-12-12-12-12-12-10-9-10-9\-5--12-12-12-12-12-10-9-10-12-12-12-12-|
--x--x--x--x--x--x-x--x-x--x---x--x--x--x--x--x-x--x--x--x--x--x-|
-10-10-10-10-10--8-7--8-7\-3--10-10-10-10-10--8-7--8-10-10-10-10-|
-----------------------------------------------------------------|



Chorus
-----------------------------------------------------------------|
-----------------------------------------------------------------|
-12-12-12-12-12-10-9-10-9\-555-444-555-777-555-44-55-------------|
--x--x--x--x--x--x-x--x-x--xxx-xxx-xxx-xxx-xxx-xx-xx-------------|
-10-10-10-10-10--8-7--8-7\-333-222-333-555-333-22-33-------------|
-----------------------------------------------------------------|



Chorus
-----------------------------------------------------------------|
-----------------------------------------------------------------|
-12-12-12-12-12-10-9-10-9\-5--12-12-12-12-12-10-9-10-12-12-12-12-|
--x--x--x--x--x--x-x--x-x--x---x--x--x--x--x--x-x--x--x--x--x--x-|
-10-10-10-10-10--8-7--8-7\-3--10-10-10-10-10--8-7--8-10-10-10-10-|
-----------------------------------------------------------------|


Chorus
------------------------------------------------|
------------------------------------------------|
--12-12-12-12-12-10-9-10-9\-5-4444444444444444--|
---x--x--x--x--x--x-x--x-x--x-xxxxxxxxxxxxxxxx--|
--10-10-10-10-10--8-7--8-7\-3-2222222222222222--|
------------------------------------------------|



|---------------------------------------|-------------|
|:-------------------------------------:|-------------|
|--555555555555555555555555/777777777\--|-5--let------|
|--xxxxxxxxxxxxxxxxxxxxxxxx-xxxxxxxxx---|-x--ring-----|
|:-333333333333333333333333/555555555\-:|-3--out------|
|---------------------------------------|-------------|
Tap to rate this tab
 
# A B C D E F G H I J K L M N O P Q R S T U V W X Y Z