Song name
# A B C D E F G H I J K L M N O P Q R S T U V W X Y Z

Heavens - Dead End Girl tab

Dead End Girl
by Heavens


Intro (clean)
|----0---0---0------0---0-0-0-0----0-0-0----0----0-0-0-0--|
|:-2---2---2---/3-3---/5-5-5-5--/9--9-9-9\7---7-5-5-5-5--:|
|---------------------------------------------------------|
|---------------------------------------------------------|
|:-------------------------------------------------------:|
|---------------------------------------------------------|



G1, Verse (clean)
|----0---0---0------0---0-0-0-0----0-0-0----0----0-0-0-0--|
|:-2---2---2---/3-3---/5-5-5-5--/9--9-9-9\7---7-5-5-5-5--:|
|---------------------------------------------------------|
|---------------------------------------------------------|
|:-------------------------------------------------------:|
|---------------------------------------------------------|
|
|
|G2, Verse (clean)
|--00000000-000-00000-------------------|
|:-00000000-000-00000------------------:|
|--66666666-666-66666-6666666-----------|
|--77777777-777-77777-7777777-----------|
|:-00000000-999-99999-xxxxxxx-77777777-:|
|---------------99999-9999999-00000000--|


CHORUS
|--555555--5-555555--5555555--5-55555/9999--|
|:-------55--------55-------55-------------:|
|-------------------------------------------|
|-------------------------------------------|
|:-----------------------------------------:|
|-------------------------------------------|


SOLO
12-12-12-12-12-------12-12-12-12-14-14-14-14-12-12-12-12-12-------|
10-10-12-12-14-14-14--------------------------9--9--9--9--9-10-10-|
---------------14-14----------------------------------------------|
------------------------------------------------------------------|
------------------------------------------------------------------|
------------------------------------------------------------------|


SOLO
/12-12-12-12--9--9--9--9--9-|
/15-15-15-15-14-14-14-14-14-|
----------------------------|
----------------------------|
----------------------------|
----------------------------|



SOLO
12-12-12-12-12-------12-12-12-12-14-14-14-14-12-12-12-12-12-12-12-|
10-10-12-12-14-14-14--------------------------9--9--9--9--9--9--9-|
---------------14-14----------------------------------------------|
------------------------------------------------------------------|
------------------------------------------------------------------|
------------------------------------------------------------------|


SOLO
-/12-12-12-12--9--9--9--9--9--|
-/15-15-15-15-14-14-14-14-14--|
------------------------------|
------------------------------|
------------------------------|
------------------------------|



G1, Verse (clean)
|----0---0---0------0---0-0-0-0----0-0-0----0----0-0-0-0--|
|:-2---2---2---/3-3---/5-5-5-5--/9--9-9-9\7---7-5-5-5-5--:|
|---------------------------------------------------------|
|---------------------------------------------------------|
|:-------------------------------------------------------:|
|---------------------------------------------------------|
|
|
|G2, Verse (clean)
|--00000000-000-00000-------------------|
|:-00000000-000-00000------------------:|
|--66666666-666-66666-6666666-----------|
|--77777777-777-77777-7777777-----------|
|:-00000000-999-99999-xxxxxxx-77777777-:|
|---------------99999-9999999-00000000--|


CHORUS
|--555555--5-555555--5555555--5-55555/9999--|
|:-------55--------55-------55-------------:|
|-------------------------------------------|
|-------------------------------------------|
|:-----------------------------------------:|
|-------------------------------------------|


SOLO
12-12-12-12-12-------12-12-12-12-14-14-14-14-12-12-12-12-12-------|
10-10-12-12-14-14-14--------------------------9--9--9--9--9-10-10-|
---------------14-14----------------------------------------------|
------------------------------------------------------------------|
------------------------------------------------------------------|
------------------------------------------------------------------|


SOLO
-/12-12-12-12--9--9--9--9--9--|
-/15-15-15-15-14-14-14-14-14--|
------------------------------|
------------------------------|
------------------------------|
------------------------------|


SOLO
12-12-12-12-12-------12-12-12-12-14-14-14-14-12-12-12-12-12-12-12-|
10-10-12-12-14-14-14--------------------------9--9--9--9--9--9--9-|
---------------14-14----------------------------------------------|
------------------------------------------------------------------|
------------------------------------------------------------------|
------------------------------------------------------------------|


SOLO
-/12-12-12-12--9--9--9--9--9--|
-/15-15-15-15-14-14-14-14-14--|
------------------------------|
------------------------------|
------------------------------|
------------------------------|



G1, Verse (clean)
|----0---0---0------0---0-0-0-0----0-0-0----0----0-0-0-0--|
|:-2---2---2---/3-3---/5-5-5-5--/9--9-9-9\7---7-5-5-5-5--:|
|---------------------------------------------------------|
|---------------------------------------------------------|
|:-------------------------------------------------------:|
|---------------------------------------------------------|
|
|
|G2, Verse (clean)
|--00000000-000-00000-------------------|
|:-00000000-000-00000------------------:|
|--66666666-666-66666-6666666-----------|
|--77777777-777-77777-7777777-----------|
|:-00000000-999-99999-xxxxxxx-77777777-:|
|---------------99999-9999999-00000000--|


Bridge, GUTIAR ONE
|---9--9--9--9--9--9--9--9--9--9--9--9--9--10-10-10--|
|:-10-10-10-10-10-10-10-10-10-10-10-10-10--10-10-10-:|
|----------------------------------------------------|
|----------------------------------------------------|
|:--------------------------------------------------:|
|----------------------------------------------------|


Bridge, GUTIAR TWO, when drums and bass kick in
|---------------------------------------|
|:-------------------------------------:|
|--6666666-66666-777-6666666666666-777--|
|--7777777-77777-777-7777777777777-777--|
|:-9999999-55555-555-0000000000000-000-:|
|---------------------------------------|


Guitar three, mini-solo
|------------------------------------------|
|:----------------------------------------:|
|--/14-14-14-13-13-13-13-11-11-9-11-11-11--|
|------------------------------------------|
|:----------------------------------------:|
|------------------------------------------|


BRIDGE VERSE THEN STARTS
-------------------------------------------------------------------|
-------------------------------------------------------------------|
--PLAY-BOTH-GUITARS-ONE-AND-TWO-BRIDGE-PARTS-----------------------|
-------------------------------------------------------------------|
-------------------------------------------------------------------|
-------------------------------------------------------------------|


Guitar three, mini-solo
|------------------------------------------|
|:----------------------------------------:|
|--/14-14-14-13-13-13-13-11-11-9-11-11-11--|
|------------------------------------------|
|:----------------------------------------:|
|------------------------------------------|


Guitar three, mini-solo END
------------------------------------------------------------------------|
------------------------------------------------------------------------|
--/14-14-14-13-13-13-13-11-11-9-11-11--9-11-11-9-11-11-9-11-11-9-11-11--|
------------------------------------------------------------------------|
------------------------------------------------------------------------|
------------------------------------------------------------------------|


OUTRO
-------------------------------------------------------------------|
-------------------------------------------------------------------|
--7/14-play-14-note-into-fade-out-oblivion-------------------------|
-------------------------------------------------------------------|
-------------------------------------------------------------------|
-------------------------------------------------------------------|


OUTRO
-------------------------------------------------------------------|
-------------------------------------------------------------------|
-------------------------------------------------------------------|
--6--play-6/7-chord-into-fade-out-oblivion-------------------------|
--7----------------------------------------------------------------|
-------------------------------------------------------------------|


OUTRO
--9-play-this-chord-into-fade-out-oblivion-------------------|
-10----------------------------------------------------------|
-------------------------------------------------------------|
-------------------------------------------------------------|
-------------------------------------------------------------|
-------------------------------------------------------------|
Tap to rate this tab
 
# A B C D E F G H I J K L M N O P Q R S T U V W X Y Z