Heavens - Heather tab

Heather

-------------------------------------------------|
-------------------------------------------------|
--22222-000-55555-0^22-5555---------22222222-----|
--33333-333-33333-3--3-7777--3^5-5--22222222-----|
--33333-333-33333-3--3-00000-0---00-00003333-----|
-------------------------------------------------|



-------------------------------------------------|
-------------------------------------------------|
--22222-000-55555-0^22-5555----------2222-2------|
--33333-333-33333-3--3-7777--3^5-5---2222-2------|
--33333-333-33333-3--3-00000-0---0-0-0000-3------|
-------------------------------------------------|


Verse, guitar one
|-----------------------------------------------|
|:---------------------------------------------:|
|------------------0^22------------------0^22---|
|--------3/55----------------3/55---------------|
|:----------------------0-00-------0-00--------:|
|---1-1-------1-11------------------------------|



Verse, guitar one
|-----------------------------------------------|
|:---------------------------------------------:|
|------------------0^22------------------0^22---|
|--------3/55----------------3/55---------------|
|:--1-1-------1-11------0-00-------0-00--------:|
|-----------------------------------------------|



Verse, guitar two
-------------------------------------|
----1---1---1---1----1---1---3---1---|
-33--333-333-333-3-22-222-222-222--2-|
-------------------------------------|
-------------------------------------|
-------------------------------------|


----------------------------------------------|
----------------------------------------------|
--22222-000-55555-0^22-5555---------22222222--|
--33333-333-33333-3--3-7777--3^5-5--22222222--|
--33333-333-33333-3--3-00000-0---00-00003333--|
----------------------------------------------|



----------------------------------------------|
----------------------------------------------|
--22222-000-55555-0^22-5555----------2222-2---|
--33333-333-33333-3--3-7777--3^5-5---2222-3---|
--33333-333-33333-3--3-00000-0---0-0-0000-----|
----------------------------------------------|



Verse, guitar one
|------------------------------------------------|
|------------------------------------------------|
|--(2)-------------0^22------------------0^22----|
|--(3)-----------------------3/55----------------|
|-----------------------0-00-------0-00----------|
|------------------------------------------------|



Verse, guitar one
--------------------------------------------------|
--------------------------------------------------|
-------------------0^22------------------0^22-----|
---------3/55----------------3/55-----------------|
------------------------0-00-------0-00-----------|
----1-1-------1-11--------------------------------|



Verse, guitar one
|-----------------------------------------------|
|:---------------------------------------------:|
|------------------0^22------------------0^22---|
|--------3/55----------------3/55---------------|
|:--1-11------1-11------0-00-------0-00--------:|
|-----------------------------------------------|



Verse, guitar two
-------------------------------------|
----1---1---1---1----1---1---3---1---|
-33--333-333-333-3-22-222-222-222--2-|
-------------------------------------|
-------------------------------------|
-------------------------------------|



|----------------------------------------------|
|:--------------------------------------------:|
|--22222-000-55555-0^22-5555---------22222222--|
|--33333-333-33333-3--3-7777--3^5-5--22222222--|
|:-33333-333-33333-3--3-00000-0---00-00003333-:|
|----------------------------------------------|




|-------------------------------------------------------------------|
|:-----1-------1-------1-------1---------1------1-------3------1---:|
|----3---3---3---3---3---3---3---3-----2--2---2--2----2--2---2--2---|
|---------------------------------------------------0---------------|
|:-1-------1-------1-------1---------0------0--------------3-------:|
|-------------------------------------------------------------------|



------------------------------------------------------------0000-|
-----1-------1-------1-------1---------1------1-------3---/55555-|
---3---3---3---3---3---3---3---3-----2--2---2--2----2--2---------|
--------------------------------------------------0--------------|
-1-------1-------1-------1---------0------0----------------------|
-----------------------------------------------------------------|


--0-0-0-0-0-0-------0--0--0-000000000000------0--0--0-000000000000--|
---1-1-1-1-1-1-/10-10-10-10-555555555555-/10-10-10-10-111111111111--|
--------------------------------------------------------------------|
--------------------------------------------------------------------|
--------------------------------------------------------------------|
--------------------------------------------------------------------|


------0--0--0--000000000000----0--0--0--0-|
-/10-10-10-10--555555555555--/10-10-10-10-|
------------------------------------------|
------------------------------------------|
------------------------------------------|
------------------------------------------|



|---------------------------------------|
|:----1---1---1---1----1---1---3---1---:|
|--33--333-333-333-3-22-222-222-222--2--|
|---------------------------------------|
|:-------------------------------------:|
|---------------------------------------|


---------------------------------0000-|
----1---1---1---1----1---1---3-/55555-|
-33--333-333-333-3-22-222-222-2-------|
--------------------------------------|
--------------------------------------|
--------------------------------------|


|---000000000000-------0--0--0--000000000000----0--0--0--0---|
|:--111111111111--/10-10-10-10--555555555555--/10-10-10-10--:|
|------------------------------------------------------------|
|------------------------------------------------------------|
|:----------------------------------------------------------:|
|------------------------------------------------------------|




---000000000000--------0--0--0--0-----------------------------|
---111111111111---/10-10-10-10--5-----------------------------|
--------------------------------------------------------------|
--------------------------------------------------------------|
--------------------------------------------------------------|
--------------------------------------------------------------|
Tap to rate this tab
 
# A B C D E F G H I J K L M N O P Q R S T U V W X Y Z