Song name
# A B C D E F G H I J K L M N O P Q R S T U V W X Y Z

Heavens - Patent Pending tab

So I looked at the other tabs for this,
and I can most definitely say that this
is the most accurate so far. Not perfect,
and not saying the other tabs are bad.
but it's progress.

Intro:
|---------------------------------|
|---------------------------------|
|---------------------------------|
|-2-2-4-4-5-5-4-4-7-7-5-4-4-0-0-0-|
|---------------------------------|
|---------------------------------|

Verse:
                   (9/7 are not power chords)  
|-7-7-x-7-7-7-x-7-7-7-x-x-x-x-x-3-3-3-x-3-3-3-x-3-3-3-x-3-3-3-|
|-8-8-x-8-8-8-x-8-8-8-x-7-7-7-x-5-5-5-x-5-5-5-x-5-5-5-x-5-5-5-|
|-x-x-x-x-x-x-x-x-x-x-x-7-7-7-x-x-x-x-x-x-x-x-x-x-x-x-x-x-x-x-|
|-9-9-x-9-9-9-x-9-9-9-x-9-9-9-x-5-5-5-x-5-5-5-x-5-5-5-x-5-5-5-|
|-------------------------------------------------------------|
|-------------------------------------------------------------|
(the one/zeros are tens, just to be clear.)
|-7-7-x-7-7-7-x-7-7-7-x-101010x-3-3-3-x-3-3-3-x-3-3-3-x-3-3-3-|
|-8-8-x-8-8-8-x-8-8-8-x-8-8-8-x-5-5-5-x-5-5-5-x-5-5-5-x-5-5-5-|
|-x-x-x-x-x-x-x-x-x-x-x-x-x-x-x-x-x-x-x-x-x-x-x-x-x-x-x-x-x-x-|
|-9-9-x-9-9-9-x-9-9-9-x-9-9-9-x-5-5-5-x-5-5-5-x-5-5-5-x-5-5-5-|
|-------------------------------------------------------------|
|-------------------------------------------------------------|

Chorus:
I know there's something thrown in here
that involves the low E string and the 
A string, but I can't figure out what.
But if you play along with the song, this
sounds fine for now.
|---------------------------------|
|---------------------------------|
|-9-9-9-9-9-9-9-9-----------------|
|-9-9-9-9-9-9-9-9-7-7-7-7-5-5-5-5-|
|-7-7-7-7-7-7-7-7-7-7-7-7-5-5-5-5-|
|-7-7-7-7-7-7-7-7-5-5-5-5-3-3-3-3-|
High time we swore off everything we know

|-------------------------------|
|-------------------------------|
|-10-10-10-10-10-10-10-10-10-10-|
|-10-10-10-10-10-10-10-10-10-10-|
|-8--8--8--8--8--8--8--8--8--8--|
|-------------------------------|
we'll be back in six minutes or so

bridge:
I found the best way to do this is
to keep your index finger barred
on the 7th fret
|---------------------------------|
|--------------------------8p7----|
|-----7-------9-------7--------7--|
|---------------------------------|
|-7-7---7-7-7---7-7-7---7---------|
|---------------------------------|
  - -   - - -   - - -   -

|-----------------|
|-----------------|
|-----------------|
|-------4-4-4--9~-|
|-7-7-7-----------|
|-----------------|
well all of the rest is pretty much in this,
minus what I couldn't figure out. I hope someone
can figure out the rest.
Tap to rate this tab
 
# A B C D E F G H I J K L M N O P Q R S T U V W X Y Z