Song name
# A B C D E F G H I J K L M N O P Q R S T U V W X Y Z

Heavens - Dead End Girl tab

Hey guys, awesome band, awesome song. Simple song to add to that, enjoy it :D, any 
or comments email me at sun.dials@hotmail.com


Song: Dead End Girl
Artist: Heavens
Tabbed by: Mike Langiewicz
Theres a little beep in the begging that you can play on guitar its.


------------|
------------|
---9-9-9----|
------------|
------------|
------------|


Intro/Verse  Riff


-00000/000-00000000/00000000-00/000000-|
-22222/333-55555555/99999999-77/555555-|
---------------------------------------|
---------------------------------------|     x5
---------------------------------------|
---------------------------------------|

Riff x2      During the Noooooooo part.

----------------------0-0-0-|
-------10-10-10-10-10-------|
----------------------------|
----------------------------|     x3
----------------------------|
----------------------------|


-------------------------------|
------10-10-10-10-10-/14-14-14-|
-------------------------------|
-------------------------------|     X1
-------------------------------|
-------------------------------|

This little part x2

-9-9-7-7-9-9-9-9-/12-12-12-12-14-14-14-14-|-12121212121212121212121212121212-|
------------------------------------------|-9-9-9-9-9-9-9-9-1010101010101010-|
------------------------------------------|----------------------------------|
------------------------------------------|----------------------------------|
------------------------------------------|----------------------------------|
------------------------------------------|----------------------------------|


Intro/Verse  Riff


-00000/000-00000000/00000000-00000000-|
-22222/333-55555555/99999999-77555555-|
--------------------------------------|
--------------------------------------|     x2
--------------------------------------|
--------------------------------------|

Riff x2      During the Noooooooo part.

----------------------0-0-0-|
-------10-10-10-10-10-------|
----------------------------|
----------------------------|     x3
----------------------------|
----------------------------|


-------------------------------|
------10-10-10-10-10-/14-14-14-|
-------------------------------|
-------------------------------|  X1
-------------------------------|
-------------------------------|


This little part x2

-9-9-7-7-9-9-9-9-/12-12-12-12-14-14-14-14-|-12121212121212121212121212121212-|
------------------------------------------|-9-9-9-9-9-9-9-9-1010101010101010-|
------------------------------------------|----------------------------------|
------------------------------------------|----------------------------------|
------------------------------------------|----------------------------------|
------------------------------------------|----------------------------------|

Intro/Verse  Riff


-00000/000-00000000/00000000-00000000-|
-22222/333-55555555/99999999-77555555-|
--------------------------------------|
--------------------------------------|     x4
--------------------------------------|
--------------------------------------|

Under-riff

--99999999-99999101010--|
------------------------|
------------------------|
------------------------|   x Till the end of the song
------------------------|
------------------------|

Come in after the 11 time of the Under riff with :


-----------------------------------------|
-----------------------------------------|
---------14-14-13-13-9-9-9-9-/6-6-4-6-6-6|
-----------------------------------------|     x6
-----------------------------------------|
-----------------------------------------|


Under-riff

--99999999-99999101010--|
------------------------|
------------------------|
------------------------|   x Keep this going
------------------------|
------------------------|

-----------------------------------------|
-----------------------------------------|
---------14-14-13-13-9-9-9-9-/6-6-4-6-6-6|
-----------------------------------------|     x Play this a few more times
-----------------------------------------|
-----------------------------------------|


--------------------------------------------------------|
-------------------------14-------------------------14~-|
-14-14-14-14-14-14-14-14----14-14-14-14-14-14-14-14-----|
--------------------------------------------------------|
--------------------------------------------------------|
--------------------------------------------------------|

Thats it, you're gonna have to play around with it yourself, rock on guys. Again, you 
contact me at sun.dials@hotmail.com, with corrections, comments, etc.
Tap to rate this tab
# A B C D E F G H I J K L M N O P Q R S T U V W X Y Z