Song name
# A B C D E F G H I J K L M N O P Q R S T U V W X Y Z

Heavenz - Imitation tab

Key- Ab Minor
BPM= ~106ish
Imitation - HeavenZ (feat. Hatsune Miku) UPDATED Intro!!!
Intro 0:00-0:11
e-19-------19-------19----18------18-------18----16-----16-----16---|
B-------21-------21----21------19------19-----19-----18-----18---18-|
G----20-------20-------------18------18-----------18-----18---------|
D-------------------------------------------------------------------|
A-------------------------------------------------------------------|
E-------------------------------------------------------------------|

e-16------------------------------------------------------------------------|
B----19-18------------------------------------------------------------------|
G----------18-13----------13-------13---------------------------------------|
D----------------16-15----------14-------14-16----16----13-16-14-13---------|
A----------------------16----14-------14-------14----14-------------14---16~|
E----------------------------------------------------------------------14---|

Main 0:11-0:32
Melody
e-------12-11-------------------12-11----11-12-14----|
B----12-------14-12-14-12----12-------14----------12-|
G-11----------------------11-------------------------|
D----------------------------------------------------|
A----------------------------------------------------|
E----------------------------------------------------|

e-------12-11----------------------------|
B----12-------14-12-14-12-12-11-12-14-12-|
G-11-------------------------------------|
D----------------------------------------|
A----------------------------------------|
E----------------------------------------|

e-------12-11-------------------12-11----11-12-14----|
B----12-------14-12-14-12----12-------14----------12-|
G-11----------------------11-------------------------|
D----------------------------------------------------|
A----------------------------------------------------|
E----------------------------------------------------|

e----------------------------------|
B-12-11-12-14-12-------------------|
G----------------11-9--------------|
D---------------------13-11-13-9-8-|
A----------------------------------|
E----------------------------------|

Rhythm
e--------------------|
B--------------------|
G---------4---3------|
D-6---2---4---4--4-4-|
A-6---2---2---1--4-4-|
E-4---0----------2-2-|Repeat 4x

Bass Break 0:33-0:54

Strum an Ab to the beat

Chorus 0:54-1:14
Rhythm
e-----------------           -------------------|
B-----------------           -------------------|
G---------4-------           -------------------|
D-2---6---4---4---           -2----2----6-6-6-4-|
A-2---6---2---4---           -2----2----6-6-6-4-|
E-0---4-------2---Repeat 3x  -0----0----4-4-4-2-|
Tap to rate this tab
 
# A B C D E F G H I J K L M N O P Q R S T U V W X Y Z