Song name
# A B C D E F G H I J K L M N O P Q R S T U V W X Y Z

Heavy Heavy Low Low - Wasted tab

Heavy Heavy Low Low - Wasted (Black Flag Cover)

Really easy 40 sec song that only has two parts.

E|-------------|
B|-------------|
G|-----------7-|
D|-7-7-7-7-7-7-|
A|-7-7-7-7-7-5-|
E|-5-5-5-5-5---|

x8

E|-------------------------------------------------------------------------|
B|-------------------------------------------------------------------------|
G|-5-5-5-5-5-5-5-5-5-5-5-5-5-5-5-5-----------------------------------------|
D|-5-5-5-5-5-5-5-5-5-5-5-5-5-5-5-5-8-8-8-8-8-8-8-8-7-7-7-7-5-5-5-5---------|
A|-3-3-3-3-3-3-3-3-3-3-3-3-3-3-3-3-8-8-8-8-8-8-8-8-7-7-7-7-5-5-5-5---------|
E|---------------------------------6-6-6-6-6-6-6-6-5-5-5-5-3-3-3-3---------|

X1

Repeat the whole thing three times.

End with...

E|----
B|----
G|----
D|-7--
A|-7--
E|-5--

I know its really simple but if you like punk as much as i do then you'll enjoy it.(:
Tap to rate this tab
# A B C D E F G H I J K L M N O P Q R S T U V W X Y Z