Song name
# A B C D E F G H I J K L M N O P Q R S T U V W X Y Z

Heavy Heavy Low Low - Inhalent Abuse tab

Inhalent Abuse by Heavy Heavy Low Low. off of the "Fuck It!?" album.
questions-linkoot@live.com

h=hammer on
p=pull off
b=Bend
//=slide

e|--------------------------------------------|
B|-7----------------7------------7--7---------|
G|-10---------------10-----------10-10--------|  x2
D|----8-9-7h8p7--------8-9-7h8p7--------------|
A|--------------8-9---------------------------|
D|--------------------------------------------|

e|---------------------------------------------------------------|
B|---------------------------------------------------------------|
G|---------------------------------------------------------------|
D|-0-0-0--0-0-0--0-0-0--0-0-0--0-0-0-0-0-0-0-0-0000000000--------|
A|-0-0-0--0-0-0--0-0-0--0-0-0--0-0-0-0-0-0-0-0-0000000000--------|
D|-0-0-0--0-0-0--0-0-0--0-0-0--0-0-0-0-0-0-0-0-0000000000--------|

e|--------------------------------------------|
B|-7----------------7------------7--7---------|
G|-10---------------10-----------10-10--------|
D|----8-9-7h8p7--------8-9-7h8p7--------------|
A|--------------8-9---------------------------|
D|--------------------------------------------|

e|----------------------------------------------|
B|----------------7------------7--7--7----------|
G|----------------10-----------10-10-10---------|
D|--8-9-7h8p7--------8-9-7h8p7------------------|
A|------------8-9-------------------------------|
D|----------------------------------------------|

e|----------------------------------------------|
B|-----------------7------------7--7--7--7--7---|
G|----------------10-----------10-10-10-10-10---|
D|---8-9-7h8p7-------8-9-7h8p7------------------|
A|-------------8-9------------------------------|
D|----------------------------------------------|

e|-----------------|
B|-----------------|
G|-----------------|
D|-3--33333333333--|
A|-----------------|
D|-----------------|

e|--------------------------------------------|
B|--------------------------------------------|
G|--------------------------------------------|
D|----------------8---------------------------|
A|-10-10-9-10-4h5---10-10-10-10-9-10-4h5------|
D|--------------------------------------------|

e|--------------------------------------------|
B|--------------------------------------------|
G|--------------------------------------------|
D|-8----------------8-------------------------|
A|---10-10-9-10-4h5---10-10-10-10-9-10-4h5----|
D|--------------------------------------------|

e|--------------------------------------------|
B|--------------------------------------------|
G|--------------------------------------------|
D|-1-0-1-4-3-0-1-0-1-4-3-0-0------------------|
A|-1-0-1-4-3-0-1-0-1-4-3-0-0-*3---------------|
D|-1-0-1-4-3-0-1-0-1-4-3-0-0------------------|
                           pm
e|--------------------------------------------|
B|--------------------------------------------|
G|--------------------------------------------|
D|----------------8---------------------------|
A|-10-10-9-10-4h5---10-10-10-10-9-10-4h5------|
D|--------------------------------------------|

e|--------------------------------------------|
B|--------------------------------------------|
G|--------------------------------------------|
D|-8----------------8-------------------------|
A|---10-10-9-10-4h5---10-10-10-10-9-10-4h5----|
D|--------------------------------------------|

e|-----------------------------------------------|
B|-----------------------------------------------|
G|-----------------------------------------------|
D|-1-0-1-4-3---1-0-1-4-3----1-0-1-4-3///12///----|  x2
A|-1-0-1-4-3---1-0-1-4-3----1-0-1-4-3///12///-*3-|
D|-1-0-1-4-3---1-0-1-4-3----1-0-1-4-3///12///----|

e|--------------------------------------------|
B|--------------------------------------------|
G|--------------------------------------------|
D|-0-///-0-0-///-0-0-0-///-0-0-0-0-///-2-1----|
A|-0-///-0-0-///-0-0-0-///-0-0-0-0-///-2-1----|
D|-0-///-0-0-///-0-0-0-///-0-0-0-0-///-2-1----|
  tremolo up the neck

e|-------------|
B|-------------|
G|-------------|
D|-0-0-0-0-----|
A|-0-0-0-0-----|
D|-0-0-0-0-----|

e|--------------------------------------------|
B|-----------7--------7-------7---------------|
G|----------10--------10-----10---------------|
D|----0-0-0----0-0000----0-0------------------| x4
A|----0-0-0----0-0000----0-0------------------|
D|----0-0-0----0-0000----0-0------------------|
Tap to rate this tab
 
# A B C D E F G H I J K L M N O P Q R S T U V W X Y Z