Song name
# A B C D E F G H I J K L M N O P Q R S T U V W X Y Z

Heavy Heavy Low Low - Inhalent Abuse tab

----------
HeavyHeavyLowLow - Inhalent Abuse
----------

          I tabbed this song before, but then later looking at it, I realized that there
some things wrong with it, so here is an accurate version of the tab.

    ********************************************************************
===========================****IMPORTANT****================================
There is a black line separating tab lines, these are the two guitar parts, played at
same time, guitar 1 at the top, 2 at the bottom
============================================================================
    ********************************************************************

Tuning: Standard

,./_-_\.,
   KEY
h---hammer on
~---let ring
t---tremelo pick
/---slide up
\---slide down
p---pull off
b---bend
*---pinch harmonic
.,\-_-/,.

|------------------|
|------------------|
|------------------|
|-9--8h9-8h9-------|
|------------8p7/9-|
|------------------|
____________________________________________________________________________
|------------------|
|------------------|
|-10---------10-10-|
|-10---------10-10-|
|------------------|
|------------------|


|--------------|
|--------------|
|--------------|
|-9--8h9-8h9---|
|------------9-|
|--------------|
____________________________________________________________________________
|---------------|
|---------------|
|-10---------10-|
|-10---------10-|
|---------------|
|---------------|

|------------------|
|------------------|
|------------------|
|-9--8h9-8h9-------|
|------------8p7/9-|
|------------------|
____________________________________________________________________________
|------------------|
|------------------|
|-10---------10-10-|
|-10---------10-10-|
|------------------|
|------------------|


|--------------|
|--------------|
|--------------|
|-9--8h9-8h9---|
|------------9-|
|--------------|
____________________________________________________________________________
|---------------|
|---------------|
|-10---------10-|
|-10---------10-|
|---------------|
|---------------|


|--------------------------------------------------------|
|--------------------------------------------------------|
|--------------------------------------------------------|
|--------------------------------------------------------|
|-5--5--5-5-5--5-5-5--5-5-5--5-5-5-5-5-5-5-5-5t-5t-5t-5t-|
|-5--5--5-5-5--5-5-5--5-5-5--5-5-5-5-5-5-5-5-5t-5t-5t-5t-|
____________________________________________________________________________
|--------------------------------------------------------|
|--------------------------------------------------------|
|--------------------------------------------------------|
|--------------------------------------------------------|
|-5--5--5-5-5--5-5-5--5-5-5--5-5-5-5-5-5-5-5-5t-5t-5t-5t-|
|-5--5--5-5-5--5-5-5--5-5-5--5-5-5-5-5-5-5-5-5t-5t-5t-5t-|


|------------------|
|------------------|
|------------------|
|-/9--8h9-8h9------|
|------------8p7/9-|
|------------------|
____________________________________________________________________________
|---------------|
|---------------|
|-10---------10-|
|-10---------10-|
|---------------|
|---------------|

|-----------------|
|-----------------|
|-----------------|
|-9--8h9-8h9------|
|-----------8p7/9-|
|-----------------|
____________________________________________________________________________
|------------------|
|------------------|
|-10---------10-10-|
|-10---------10-10-|
|------------------|
|------------------|

|-----------------|
|-----------------|
|-----------------|
|-9--8h9-8h9------|
|-----------8p7/9-|
|-----------------|
____________________________________________________________________________
|---------------|
|---------------|
|-10---------10-|
|-10---------10-|
|---------------|
|---------------|

|-----------------|
|-----------------|
|-----------------|
|-9--8h9-8h9------|
|-----------8p7/9-|
|-----------------|
____________________________________________________________________________
|---------------|
|---------------|
|-10---------10-|
|-10---------10-|
|---------------|
|---------------|

|-----------------|
|-----------------|
|-----------------|
|-9--8h9-8h9------|
|-----------8p7/9-|
|-----------------|
____________________________________________________________________________
|------------------|
|------------------|
|-10---------10-10-|
|-10---------10-10-|
|------------------|
|------------------|

|-----------------|
|-----------------|
|-----------------|
|-9--8h9-8h9------|
|-----------8p7/9-|
|-----------------|
____________________________________________________________________________
|---------------|
|---------------|
|-10---------10-|
|-10---------10-|
|---------------|
|---------------|

|-----------------|
|-----------------|
|-----------------|
|-9--8h9-8h9------|
|-----------8p7/9-|
|-----------------|
____________________________________________________________________________
|------------------|
|------------------|
|-10---------10-10-|
|-10---------10-10-|
|------------------|
|------------------|

|-----------------|
|-----------------|
|-----------------|
|-9--8h9-8h9------|
|-----------8p7/9-|
|-----------------|
____________________________________________________________________________
|------------------|
|------------------|
|-10---------10-10-|
|-10---------10-10-|
|------------------|
|------------------|


|----------------------|
|----------------------|
|----------------------|
|----------------------|
|----------------------|
|----------------------|
____________________________________________________________________________
|----------------------|
|----------------------|
|-10-10-10-10-10-10-10-|
|-10-10-10-10-10-10-10-|
|----------------------|
|----------------------|


|---------------|
|---------------|
|-------------3-|
|-5t-4-5--------|
|--------4/5----|
|---------------|[4x]
___________________________________________________________________________
|---------------|[4x]
|---------------|
|---------------|
|---------------|
|---------------|
|---------------|

|---------------------------------|
|---------------------------------|
|---------------------------------|
|-5\4--5\4--5/6\5\4--5\4--5\4--6b-|
|-5\4--5\4--5/6\5\4--5\4--5\4--6b-|
|-5\4--5\4--5/6\5\4--5\4--5\4--6b-|
____________________________________________________________________________
|---------------------------------|
|---------------------------------|
|---------------------------------|
|-5\4--5\4--6b-------5\4--5\4--7b-|
|-5\4--5\4--6b-------5\4--5\4--7b-|
|-5\4--5\4--6b-------5\4--5\4--7b-|


|---------------|
|---------------|
|-------------3-|
|-5t-4-5--------|
|--------4/5----|
|---------------|[8x]
___________________________________________________________________________
|---------------|[8x]
|---------------|
|---------------|
|---------------|
|---------------|
|---------------|

|----------|
|----------|
|----------|
|-5t-4-5p4-|
|----------|
|----------|
____________________________________________________________________________
|-----------|
|-----------|
|-----------|
|-----------|
|-----------|
|-5\4-5\4-7-|

|-----------|
|-----------|
|-----------|
|-5\4-5/6-5-|
|-5\4-5/6-5-|
|-5\4-5/6-5-|
____________________________________________________________________________
|-----------|
|-----------|
|-----------|
|-5\4-5/6-5-|
|-5\4-5/6-5-|
|-5\4-5/6-5-|

|-------------------|
|-------------------|
|--------------7-9*-|
|-5\4-5\4-6---------|
|-5\4-5\4-6---------|
|-5\4-5\4-6---------|
____________________________________________________________________________
|---------------------|
|---------------------|
|---------------------|
|-5\4-5/6-7b~--12-12*-|
|-5\4-5/6-7b~---------|
|-5\4-5/6-7b~---------|


|-----------|
|-----------|
|-----------|
|-5\4-5/6-5-|
|-5\4-5/6-5-|
|-5\4-5/6-5-|
____________________________________________________________________________
|-----------|
|-----------|
|-----------|
|-5\4-5/6-5-|
|-5\4-5/6-5-|
|-5\4-5/6-5-|

|-------------------|
|-------------------|
|--------------7-9*-|
|-5\4-5\4-6---------|
|-5\4-5\4-6---------|
|-5\4-5\4-6---------|
____________________________________________________________________________
|---------------------|
|---------------------|
|---------------------|
|-5\4-5/6-7b~--12-12*-|
|-5\4-5/6-7b~---------|
|-5\4-5/6-7b~---------|


|-------------------/14-|
|----------------/14----|
|-------------/14-------|
|----------/14----------|
|------/14--------------|
|-/14-------------------|
____________________________________________________________________________
|-------------------/14t-|
|----------------/14t----|
|-------------/14t-------|
|----------/14t----------|
|------/14t--------------|
|-/14t-------------------|


|-14\--------------------|
|-----13\----------------|
|---------12\------------|
|-------------12\--------|
|-----------------11\----|
|---------------------/5-|
____________________________________________________________________________
|-14\----------------------------|
|-----13\------------------------|
|---------13\2221----------------|
|--------------------------------|
|-----------------10\------------|
|---------------------10\-111-/5-|

|------------|
|------------|
|------------|
|------------|
|-0~-0~-0~-0-|
|-0~-0~-0~-0-|
____________________________________________________________________________
|----------|
|----------|
|----------|
|----------|
|-0~-0~-0~-|
|-0~-0~-0~-|

|-----------------------------|
|-----------------------------|
|-----------------------------|
|-----------------------------|
|-0~-0~-0-12-0-0t-0-13-0-0-13-|
|-0~-0~-0-12-0-0t-0-12-0-0-12-|[4x]
____________________________________________________________________________
|-----------------------------|[4x]
|---------15--------15-----15-|
|---------15--------15-----15-|
|---------15--------15-----15-|
|-----------------------------|
|-0~-0~-0----0-0t-0----0-0----|

Well, there it is. Most of the tab is right I know for sure except the one part with all
slides its kinda hard to figure out because there's a lot going on with that part. But
than that, it's all there, the way they play it I'm pretty sure. And another thing, 
if those lines make it a little confusing it's just something I tried to make it a
easier to understand but I don't know how much easier it is, but it works for me.

HHLL!!

   -Jamesus
Tap to rate this tab
# A B C D E F G H I J K L M N O P Q R S T U V W X Y Z